Song name
# A B C D E F G H I J K L M N O P Q R S T U V W X Y Z

Misc Unsigned Bands - Siempre Fiel - Sufro En Silencio tab

Sufro en silencio
Siempre Fiel


Chords:
Bm7* disminuido
e|---
B|-2-
G|---
D|-4-
A|-4-
E|---

Cm
e|---
B|---
G|-6-
D|-6-
A|-4-
E|---


Asus
e|---
B|---
G|-2-
D|-2-
A|---
E|---


B*
e|---
B|---
G|-4-
D|-4-
A|-2-
E|---


Intro x2

	   Bm7*disminuido			    Cm
e|-------0---------------0-----/------0------------0----------|
B|-4-------4-----4-4-------4---/-0----------0-0----------0----|
G|---4-------4-------4------4--/---6----6-------6----6--------|
D|-2---2-------2---2---2------2/----6-----6-------6----6------|
A|-----------------------------/-4----------4-4---------------|
E|-----------------------------/------------------------------|

          Asus					B*
e|-------0-------------0-------/------0-------------0---------|
B|-0-------0-----0-------0-----/-0----------0-0---------------|
G|---2-------2-----2-------2---/---4----4-------4-------------|
D|-2---2-------2-2---2-------2-/-----4----4-------4-----------|
A|-----------------------------/-2----------2-2---------------|
E|-----------------------------/------------------------------|


Note: The verse and the chorus is played whit the same chords that you use on the intro.


Verse:
Bm7*
Porque te vas,
	    Cm
Todo ya cambio
	     Asus
Mi mundo eres tú
		 B*
Mi vida es tu amor

Porque te vas
Hazme un favor
Recuerda que siempre
Tendrás mi amor

Chorus:
		Bm7*		Cm
Y me pregunto que fue lo que hice mal
	  Asus    B*
Al tratar de ganarte
Y me pregunto que debo hacer
Y me pregunto si alguna vez te tendré

Verse:

Porque te vas
Tú fuiste mi luz
De mi vida
Tú eres la razón
Porque te vas
Dame una razón
Porque debería
Olvidar tu hermoso corazón

Chorus:

Y me pregunto que fue lo que hice mal
Al tratar de ganarte
Y me pregunto que debo hacer
Y me pregunto si alguna vez te tendré
Si alguna vez te tendré

The bridge: intro x2

Chorus

Just remember and the end of this chorus you have to play the intro one more time, and 
with a slowly Asus. Listen to the Cd for the ending.

This song is available on Cd “Tears from a Heart” of Siempre Fiel Anniversary Demo, that 
out to stores the last June, so get it is a cool Cd.
Tap to rate this tab
# A B C D E F G H I J K L M N O P Q R S T U V W X Y Z