Song name
# A B C D E F G H I J K L M N O P Q R S T U V W X Y Z

Misc Unsigned Bands - The Isle Of Wight - House Cat tab

intro
|----7--7--7--7--7--7--7--7--10--10--10--10---12---12---12---12--|
|----------------------------------------------------------------|
|----------------------------------------------------------------|
|--5--5--5--5--5--5--7--7--9---9---9---9---10---10---10---10-----|
|----------------------------------------------------------------|
|----------------------------------------------------------------|

|----7--7--7--7--7--7--7--7--10--10--10--10---12---12---12------|
|---------------------------------------------------------------|
|---------------------------------------------------------------|
|--5--5--5--5--5--5--7--7--9---9---9---9---10---10---10---9-7---|
|---------------------------------------------------------------|
|---------------------------------------------------------------|

then straight into main riff (3 times)
|----7--7--7--7--7--7--7--7--3--3--3--3--3--3--3--3--------------------------|
|-----------------------------------------------------5--5--5--5--5--5--5--5-|
|----------------------------------------------------------------------------|
|--5--5--5--5--5--5--4--4--2--2--2--2--2--2--0--0----------------------------|
|---------------------------------------------------3--3--3--3--3--3--5--5---|
|----------------------------------------------------------------------------|

|-------------------------------|
|----4--4--4--4--4--4--4--4-----|
|-------------------------------|
|-------------------------------|
|--2--2--2--2--2--2--0----------|
|-----------------------3-------|

then play this
|----7--7--7--7--7--7--7--7---------------------------7--7--7--7--7--7--7--7-|
|-----------------------------7--7--7--7--9--9--9--9-------------------------|
|----------------------------------------------------------------------------|
|--5--5--5--5--5--5--5--5---------------------------5--5--5--5--5--5--5--5---|
|--------------------------5--5--5--5--7--7--7--7----------------------------|
|----------------------------------------------------------------------------|

|--------------------------------------------------------------------------|
|----7--7--7--7--9--9--9--9--5--5--5--5--5--5--5--5--4--4--4--4--4--4--4--4|
|--------------------------------------------------------------------------|
|--------------------------------------------------------------------------|
|--5--5--5--5--7--7--7--7--3--3--3--3--3--3--3--3--2--2--2--2--2--2--0-----|
|-----------------------------------------------------------------------3--|

then main riff twice again followed by 2nd riff then main riff twice again then second riff.

then finish with
|----7--7--7--7--7--7--7--7--10--10--10--10---12---12---12---12--|
|----------------------------------------------------------------|
|----------------------------------------------------------------|
|--5--5--5--5--5--5--7--7--9---9---9---9---10---10---10---10-----|
|----------------------------------------------------------------|
|----------------------------------------------------------------|

play three times then
|----7--7--7--7--7--7--7--7--10--10--10--10---12---12---12------|
|---------------------------------------------------------------|
|---------------------------------------------------------------|
|--5--5--5--5--5--5--7--7--9---9---9---9---10---10---10---9-7---|
|---------------------------------------------------------------|
|---------------------------------------------------------------|

obviously this song sounds best and is easiest to play finger picking wise.
.
Tap to rate this tab
 
# A B C D E F G H I J K L M N O P Q R S T U V W X Y Z