Song name
# A B C D E F G H I J K L M N O P Q R S T U V W X Y Z

Misc Unsigned Bands - Left Without A Purose - Walk In My Door tab

YOU MAY NOT COPY THIS AT ALL, IF YOU HAVE QUESTIONS EMAIL ME CORNELIOUSJONES32@YAHOO.COM 
...WE HAVE TRADEMARKED THIS AND ITS SAFE WITH PLYMOUTH COPYRIGHT COMPANY, SO IF ANYONE 
THIS, YOU WILL BE FINED FOR COPYRIGHT!


G1-Alex-Clean-standard
G2-Sam-Distortion-Drop D

Intro G1
e|---------------------------------------------------|
B|--4h5~7~5-4-2---4h5-7~5-4-2---4h5~7~5-4-2----------|
G|--F--I--L--L----F--I--L--L-----F--I--L--L6x4x2x6666|
D|-----------------------------------------6x4x2x6666|x2
A|-----------------------------------------4x2x0x4444|
E|---------------------------------------------------|

Intro G2
e|---------------------------------------------------|
B|---------------------------------------------------|
G|---------------------------------------------------|
D|66-6-6-6-6-6-6-44-4-4-4-4-4-22-2-2-2-2-2-6x4x2x6666| X2
A|66-6-6-6-6-6-6-44-4-4-4-4-4-22-2-2-2-2-2-6x4x2x6666|
E|44-4-4-4-4-4-4-22-2-2-2-2-2-00-0-0-0-0-0-4x2x0x4444|
     . . . . . .    . . . . .    . . . . .

Verse G1
e|----------------------------------------------|
B|----------------------------------------------|
G|6~~~~~~~~~~~~~~~~~~~~~~~~4~~~~~~~~~~~~~~~~~~~~|
D|6~~~~~~~~~~~~~~~~~~~~~~~~4~~~~~~~~~~~~~~~~~~~~|X5
A|4~~~~~~~~~~~~~~~~~~~~~~~~2~~~~~~~~~~~~~~~~~~~~|
E|----------------------------------------------|

Verse G2
e|----------------------------------------------|
B|----------------------------------------------|
G|------66-44-----66-44----------44-22-----44-22|
D|----66--------66-------------44--------44-----|X5
A|--44--------44-------------22--------22-------|
E|----------------------------------------------|
   \_______FILL_________/   \_______FILL_________/

Chorus G1
e|----------------------|
B|----------------------|
G|-6-6-9-999-2-22222-2-2|
D|-6-6-x-xxx-2-22222-2-2|X3
A|-4-4-7-777-0-00000-0-0|
E|----------------------|

Chorus G2
e|2-1-421-421-421-421-421-|X4
B|------------------------|
G|------------------------|
D|------------------------|
A|------------------------|
E|------------------------|


Verse G1
e|----------------------------------------------|
B|----------------------------------------------|
G|6~~~~~~~~~~~~~~~~~~~~~~~~4~~~~~~~~~~~~~~~~~~~~|
D|6~~~~~~~~~~~~~~~~~~~~~~~~4~~~~~~~~~~~~~~~~~~~~|X5
A|4~~~~~~~~~~~~~~~~~~~~~~~~2~~~~~~~~~~~~~~~~~~~~|
E|----------------------------------------------|

Verse G2
e|----------------------------------------------|
B|----------------------------------------------|
G|------66-44-----66-44----------44-22-----44-22|
D|----66--------66-------------44--------44-----|X5
A|--44--------44-------------22--------22-------|
E|----------------------------------------------|
   \_______FILL_________/   \_______FILL_________/


Chorus G1
e|----------------------|
B|----------------------|
G|-6-6-9-999-2-22222-2-2|
D|-6-6-x-xxx-2-22222-2-2|X3
A|-4-4-7-777-0-00000-0-0|
E|----------------------|

Chorus G2
e|2-1-421-421-421-421-421-|X4
B|------------------------|
G|------------------------|
D|------------------------|
A|------------------------|
E|------------------------|

Bridge G1
e|------------------------------|
B|------------------------------|
G|6666------------6666----------|
D|6666x5----------6666x5--------|
A|4444------------4444----------|
E|------------------------------|

Bridge G2
e|------------------------------|
B|------------------------------|
G|-------2222------------4444---|
D|-------2222x5----------4444x5-|
A|-------0000------------2222---|
E|------------------------------|


BREAKDOWN G1 & G2
e|------------------------------|
B|------------------------------|
G|6666----2222----6666----4444--|
D|6666x5--2222x5--6666x5--4444x5| X2
A|4444----0000----4444----2222--|
E|------------------------------|


Intro G1
e|---------------------------------------------------|
B|--4h5~7~5-4-2---4h5-7~5-4-2---4h5~7~5-4-2----------|
G|--F--I--L--L----F--I--L--L-----F--I--L--L6x4x2x6666|
D|-----------------------------------------6x4x2x6666|x2
A|-----------------------------------------4x2x0x4444|
E|---------------------------------------------------|

Intro G2
e|---------------------------------------------------|
B|---------------------------------------------------|
G|---------------------------------------------------|
D|66-6-6-6-6-6-6-44-4-4-4-4-4-22-2-2-2-2-2-6x4x2x6666| X2
A|66-6-6-6-6-6-6-44-4-4-4-4-4-22-2-2-2-2-2-6x4x2x6666|
E|44-4-4-4-4-4-4-22-2-2-2-2-2-00-0-0-0-0-0-4x2x0x4444|
     . . . . . .    . . . . .    . . . . .

Chorus G1 & G2
e|----------------------|  |-----------------------|
B|----------------------|  |-----------------------|
G|-6-6-9-999-2-22222-2-2|  |-6-6-9-999-9-8-11-2~~~~|
D|-6-6-x-xxx-2-22222-2-2|X2|-6-6-x-xxx-9-8-11-2~~~~|
A|-4-4-7-777-0-00000-0-0|  |-4-4-7-777-7-6--9-0~~~~|
E|----------------------|  |-----------------------|
                             Do third time and let ring
Tap to rate this tab
# A B C D E F G H I J K L M N O P Q R S T U V W X Y Z