Song name
# A B C D E F G H I J K L M N O P Q R S T U V W X Y Z

Misc Unsigned Bands - Evasion - Amy Merett Makes Me Wet tab

Help us improve GuitareTab! Take a short survey!
Lead guitar & Rhythm Guitar (Zak & Andrew)

Verse 1 & 2 Riff  X15
----------------------------------------------------|
----------------------------------------------------|
----------------------------------------------------|
-----55555555----33333333----87---------------------|
-----55555555----33333333----87---------------------|
-----55555555----33333333----87---------------------|


Circle Pit Riff  X4
-----------------------------------------------------|
-----------------------------------------------------|
-----------------------------------------------------|
-----558855885588----3333----------------------------|
-----558855885588----3333----------------------------|
-----558855885588----3333----------------------------|

Verse 3 Riff X15
----------------------------------------------------|
----------------------------------------------------|
----------------------------------------------------|
-----55555555----33333333----87---------------------|
-----55555555----33333333----87---------------------|
-----55555555----33333333----87---------------------|

Outro Riff

--------------------------------------------------------|
--------------------------------------------------------|
--------------------------------------------------------|
----5--xxx--5------5--xx--5------3--3----8--7-----------|
----5--xxx--5----- 5--xx-----5---3--3----8--7-----------|
----5--xxx--5--0--5--xx----------3--3----8--7-----------|


Related for Evasion - Amy Merett Makes Me Wet tab