Guitaretab - guitar tabs
Song name
# A B C D E F G H I J K L M N O P Q R S T U V W X Y Z

Misc Unsigned Bands - The Lazy Jedi - The G-hard Joe tab

Band - The Lazy Jedi 
Song - The G-Hard Joe

Intro:

E|--3------3-------2-------3-------------------|
B|--3------3-------3-------3-------------------|
G|-----------------2---------------------------|    Xs 2
D|---------3---------------3-------------------|  
A|--3------2---------------2-------------------|
E|--2------------------------------------------|


Verse:

e|----3-3-3-3-3----3-3-3-3-3----2-2-2-2-2----3-3-3-3-3-------|
B|----3-3-3-3-3----3-3-3-3-3----3-3-3-3-3----3-3-3-3-3-------|
G|------------------------------2-2-2-2-2--------------------|	Xs 4
D|-----------------3-3-3-3-3-----------------3-3-3-3-3-------|  
A|----3-3-3-3-3----2-2-2-2-2-----------------2-2-2-2-2-------|
E|----2-2-2-2-2----------------------------------------------|


Chorus:

E|---3----x-x-x-3----x-x-x-2----x-x-x-2-2-2-2-2-2------|
B|---3----x-x-x-3----x-x-x-3----x-x-x-2-2-2-2-2-2------|
G|-------------------------2----x-x-x------------------|    Xs 2
D|--------------3----x-x-x------------3-3-3-3-3-3------|  
A|---3----x-x-x-2----x-x-x------------2-2-2-2-2-2------|
E|---2----x-x-x----------------------------------------|


Verse 2:
[ Tab from: http://www.guitaretab.com/m/misc-unsigned-bands/78835.html ]
e|----3-3-3-3-3----3-3-3-3-3----2-2-2-2-2----3-3-3-3-3-------|
B|----3-3-3-3-3----3-3-3-3-3----3-3-3-3-3----3-3-3-3-3-------|
G|------------------------------2-2-2-2-2--------------------|	Xs 4
D|-----------------3-3-3-3-3-----------------3-3-3-3-3-------|  
A|----3-3-3-3-3----2-2-2-2-2-----------------2-2-2-2-2-------|
E|----2-2-2-2-2----------------------------------------------|


Chorus:

E|---3----x-x-x-3----x-x-x-2----x-x-x-2-2-2-2-2-2------|
B|---3----x-x-x-3----x-x-x-3----x-x-x-2-2-2-2-2-2------|
G|-------------------------2----x-x-x------------------|    Xs 2
D|--------------3----x-x-x------------3-3-3-3-3-3------|  
A|---3----x-x-x-2----x-x-x------------2-2-2-2-2-2------|
E|---2----x-x-x----------------------------------------|


Outro:

e|----3-3-3-3-3----3-3-3-3-3----2-2-2-2-2----3-3-3-3-3-------|
B|----3-3-3-3-3----3-3-3-3-3----3-3-3-3-3----3-3-3-3-3-------|
G|------------------------------2-2-2-2-2--------------------|	Xs 2
D|-----------------3-3-3-3-3-----------------3-3-3-3-3-------|  
A|----3-3-3-3-3----2-2-2-2-2-----------------2-2-2-2-2-------|
E|----2-2-2-2-2----------------------------------------------|


Related for The Lazy Jedi - The G-hard Joe tab