Song name
# A B C D E F G H I J K L M N O P Q R S T U V W X Y Z

Misc Unsigned Bands - F-town Ballaz - Last Train To Cali tab

                         Last Train to Cali
                            F-town Ballaz


h-hammer on

p-pull off of the fret of which you either just hammered on or didnt hammer on and just 
to have your finger placed there in that certain chord or note.
~ - Let ring

Verse 1

riff 1(x5)
gtr. 1
let all chords ring
        ~                      ~
-7-7-7h8-8p7-7-7--------5-5-5h7-7p5-5-5--------|
-8-8-8---7---8-8--------4-4-4---4---4-4--------|
-7-7-7---7---7-7--------4-4-4---4---4-4--------|
-----------------------------------------------|
-----------------------------------------------|
-----------------------------------------------|

--3-3-3h5-5p3-3-3--3 3-3h5-5p3-3-------------|
--5-5-5---5---5-5--4-4-4---4---4-------------|
--4-4-4---4---4-4--5-5-5---5---5-------------|
---------------------------------------------|
---------------------------------------------|
---------------------------------------------|

transition
1x before chorus
              ~           ~
-2-2-2h3-3p2-2---2-2-2h3-3-------------------|
-3-3-3---3---3---3-3-3---3-------------------|
-2-2-2---2---2---2-2-2---2-------------------|
---------------------------------------------|
---------------------------------------------|
---------------------------------------------|
Chorus Riff (2x)
              ~
-0-0-0h2-2p0-0--0-0-0h2-2p0-0--0-0-0h2-2p0-0--2-2-2-2h3-3p2-2-2----|
-2-2-2---2---2--2-2-2---2---2--1-1-1---1---1--3-3-3-3---3---3-3----|
-1-1-1---1---1--0-0-0---0---0--0-0-0---0---0--2-2-2-2---2---2-2----|
-2-2-2---2---2--2-2-2---2---2--2-2-2---2---2--0-0-0-0---0---0-0----|
-------------------------------------------------------------------|
-------------------------------------------------------------------|

riff 1 (x3)

chorus riff(2x)

gtr.1

riff 1 however many times it takes to do solo

gtr. 2
solo

           ~
----------7-7-7-7h8-7-7h8-7-------------------------------|
-----8-10-------------------10-8-8h10p8-------------------|
-7s9------------------------------------9~-9-9-9p7-7-7s9--|
----------------------------------------------------------|
----------------------------------------------------------|
----------------------------------------------------------|

(to be completed) as of 10-1-06
Tap to rate this tab
# A B C D E F G H I J K L M N O P Q R S T U V W X Y Z