Guitaretab - guitar tabs
Song name
# A B C D E F G H I J K L M N O P Q R S T U V W X Y Z

Misc Unsigned Bands - Kool Shades - Desert Surf tab

Song: Desert Surf
Band: Kool Shades
Album: Live! From the Sun
Tabbed by: athsmador
email-anothervivacarter@yahoo.com

!!!GOTTA SAY THAT THIS IS THE FIRST KOOL SHADES TAB EVER!!!

this is the seventh song on the new album that came out on 9/30 get it if you havenít already    
check em out at www.myspace.com/koolshades


10/22- fixed verses

Intro- pick the E string as you slide down the neck
E|------------------------| 
B|------------------------|
G|------------------------| 
D|------------------------|
A|------------------------|
E|-18-/-/-/-/-/-/-/-/3----|


E|-----------------------------------| 
B|-----------------------------------|
G|--------55555555---------77777777--| 
D|-5-5555-55555555--5-5555-77777777--| x2
A|-5-5555-33333333--5-5555-55555555--|
E|-3-3333-----------3-3333-----------|

Verse (upstrokes in a skanky rhytmn)
im SURE this isnít dead-on, but play around with it


E|-33-3-3--x--8-8--x-1010---| 
B|-33-3-3--x--8-8--x-1010---|
G|-44-4-4--x--9-9--x-1111---| 
D|-55-5-5----1010----1212---|
A|-55-5-5----1010----1212---|
E|-33-3-3-----8-8----1010---|

E|-33-3-3--x--1010---8-8----| 
B|-33-3-3--x--1010---8-8----|
G|-44-4-4--x--1111---9-9----| 
D|-55-5-5-----1212--1010----|
A|-55-5-5-----1212--1010----|
E|-33-3-3-----1010---8-8----|



[ Tab from: http://www.guitaretab.com/m/misc-unsigned-bands/79004.html ]
Chorus (let a C chord ring and then do the slide from the intro and then play this)
E|-----------------------------------| 
B|-----------------------------------|
G|--------55555555---------77777777--| 
D|-5-5555-55555555--5-5555-77777777--| x2
A|-5-5555-33333333--5-5555-55555555--|
E|-3-3333-----------3-3333-----------|


2nd verse
E|-33-3-3--x--8-8--x-1010---| 
B|-33-3-3--x--8-8--x-1010---|
G|-44-4-4--x--9-9--x-1111---| 
D|-55-5-5----1010----1212---|
A|-55-5-5----1010----1212---|
E|-33-3-3-----8-8----1010---|

E|-33-3-3--x--1010---8-8----| 
B|-33-3-3--x--1010---8-8----|
G|-44-4-4--x--1111---9-9----| 
D|-55-5-5-----1212--1010----|
A|-55-5-5-----1212--1010----|
E|-33-3-3-----1010---8-8----|


repeat chorus just like the 1st one

Interlude
E|----------------------| 
B|----------------------|
G|-----5-------7~-------| 
D|-5---5---5---7~-------| x2
A|-5---3---5---5~-------|
E|-3-------3------------|

  then thereís that Jamaican-sounding breakdown thing 
i donít think that theres any guitar on it
if u want u can go like this to match what the horns are playing (this is AFTER the singing)
E|-3--3--3--3-----------| 
B|-3--3--3--3--7p5~-----|
G|-4--4--4--4--7p5~-----| 
D|-5--5--5--5--7p5~-----|
A|-5--5--5--5--5p3~-----|
D|-3--3--3--3-----------|

repeat the chorus twice and on the end of the second one do this at the end 
E|-------------------------| 
B|-------------------------|
G|-7-5-4--7--5--4----------| 
D|-7-5-4--7--5--4---5~-----|
A|-5-3-2--5--3--2---5~-----|
D|------------------3~-----|

Related for Kool Shades - Desert Surf tab