Song name
# A B C D E F G H I J K L M N O P Q R S T U V W X Y Z

Misc Unsigned Bands - The Immortal Change - Fake Society tab

My first tab for meant to be sucked lol, right notes but confusing.....
this is the lead parts for the song

INTRO
e|-------------------------------------------------------------------------|
b|-------------------------------------------------------------------------|
g|--------3p02h3p03p0--------3p02h3p03p0--------3p02h3p03p0302303p02h3p03p0|
d|3p02h3p0-----------3p02h3p0-----------3p02h3p0-----------30230-----------|
a|-------------------------------------------------------------------------|
E|-------------------------------------------------------------------------|

e|-------------------------------------------------------------------------|
b|--------------------------------------------------------------3023030----|
g|--------3p02h3p03p0--------3p02h3p03p0--------3p02h3p03p0302303023030----|
d|3p02h3p0-----------3p02h3p0-----------3p02h3p0-----------30230-----------|
a|-------------------------------------------------------------------------|
E|-------------------------------------------------------------------------|

VERSE

e|--------------------------------  -----------------|
b|--------------------------------  -----------------|
g|----------------2222xxxx0000xxxx  ----33332222-----|
d|3333xxxx2222xxxx----------------  2222--------3333-|
a|--------------------------------  -----------------|
E|--------------------------------x2-----------------|x2


VERSE CONT.

e|------------------------|
b|------------------------|
g|------------2222xxxx3333|
d|3333xxxx2222------------|
a|------------------------|
E|------------------------|

CHORUS

e|-------------------------------------------------------------------|
b|-------------------------------------------------------------------|
g|0000000000000000000000000000000000000000000000000000000000000000000|
d|2222333355553333222233335555333322223333555533332222333355557532320|
a|-------------------------------------------------------------------|
E|-------------------------------------------------------------------|

VERSE

e|----------------------------------------------------- |----------------|
b|----------------------------------------------------- |----------------|
g|------------2222xxxx0000----------------------------- |---22223333-----|
d|3333xxxx2222------------3333xxxx2222xxxx5555xxxx3333- |3333--------2222|
a|----------------------------------------------------- |----------------|
E|----------------------------------------------------- |----------------|x2


VERSE CONT.

e|----------------------------|
b|----------------------------|
g|----------------------------|
d|3333xxxx2222xxxx5555xxxx7777|
a|----------------------------|
E|----------------------------|


CHORUS

e|---------------------------------------------------------------------------|
b|---------------------------------------------------------------------------|
g|0000000000000000---0000000000000000-0000000000000000---0000000000000000000-|
d|2222333355553333x3 2222333355557777 2222333355553333x3 2222333355557532320
a|--------------------------------------------------------------------------|
E|--------------------------------------------------------------------------|

MIDDLESECTION

e|-------------------------------------------------------------------------|
b|-------------------------------------------------------------------------|
g|-0-0-0-0-2-2-2-2-3-3-3-3-5-5-5-5-3-3-3-3-2-2-2-2-3-3-3-3-5-5-5-5-7-7-7-7-|
d|0-0-0-0-2-2-2-2-3-3-3-3-5-5-5-5-3-3-3-3-2-2-2-2-3-3-3-3-5-5-5-5-7-7-7-7--|
a|-------------------------------------------------------------------------|
E|-------------------------------------------------------------------------|

MORE MIDDLESECTION

e|7------7  6-----6-|
b|-8----8-  -7---7--|
g|--9--9--  --8-8---|
d|---10---  ---9----|
a|--------  --------|
E|--------x2--------|x2


INTRO AGAIN

e|------------------------go-fast-now------------------------------------|
b|play this sofetly----------3023030----------------------------3023030--|
g|--------3p02h3p03p0-----302303023030--------3p02h3p03p0--302303023030--|
d|3p02h3p0----------------30230-------3p02h3p0-------------30230---------|
a|-----------------------------------------------------------------------|
E|-------------------x3----------------------------------x3--------------|


CHORUS

e|----------------------------------|
b|----------------------------------|
g|0000000000000000--0000000000000000|
d|2222333355553333--2222333355557777|
a|----------------------------------|
E|----------------x3----------------|

                                                 g|0000000000000000
play that 3 times but on the last one instead of d|2222333355557777 play
this
                                         OUTRO
e|---------------------------------|  e|-------------------|
b|---------------------------------|  b|-------------------|
g|0000000000000000000-------7532320|  g|--------3p02h3p03p0|
d|22223333555575323207532320-------|  d|3p02h3p0-----------|
a|---------------------------------|  a|-------------------|
E|---------------------------------|  E|-------------------|
Tap to rate this tab
# A B C D E F G H I J K L M N O P Q R S T U V W X Y Z