Song name
# A B C D E F G H I J K L M N O P Q R S T U V W X Y Z

Misc Unsigned Bands - The Immortal Change - Screaming In Harmony tab

no comment..... this is for rythm and lead parts

e|-----------|
b|-----------|
g|-----------|
d|7~~~~8-~~~~|
a|5~~~~10~~~~|
E|-----------|

Verse rythm plays only

e|------------------|
b|------------------|
g|444445555533334444|
d|444445555533334444|
a|222223333311112222|
E|------------------|x2

CHORUS lead plays this

e|-------------|
b|8-11---------|
g|----11-------|
d|------9-11-12|
a|-------------|
E|-------------|x2


Lead Verse 2

e|----------------|
b|----------------|
g|----------------|
d|8888999966668888|
a|8888999966668888|
E|----------------|x2

Rythm Verse 2, I think this is what he does

e|----------------------------|
b|----------------------------|
g|----------------------------|
d|1010101011111111888810101010|
a|-8-8-8-8-9-9-9-96666-8-8-8-8|
E|----------------------------|x2

CHORUS lead plays this

e|-------------|
b|8-11---------|
g|----11-------|
d|------9-11-12|
a|-------------|
E|-------------|x2 then it does the chorus again twice with WHAMMY BAR!!
Tap to rate this tab
# A B C D E F G H I J K L M N O P Q R S T U V W X Y Z