Song name
# A B C D E F G H I J K L M N O P Q R S T U V W X Y Z

Misc Unsigned Bands - The Immortal Change - Harvest Of Sorrow tab

this song is llike 9 minutes long but i only play the same parts over and over again so 
each part for like 1 minute or sumtin.

e|---11-------10-------9-----|
b|--12-12---11-11----10-10---|
g|-13---13-12---12-11-----11-|
d|0-------0-------0---------0|
a|---------------------------|
E|---------------------------|

e|-------|
b|-------|
g|-------|
d|8/9/9/7|
a|8/9/9/7|
E|8/9/7/5|

e|14121191112------14121191112-------14121191112-12117121171211712117|
b|----------12141112----------12111412---------------------1211712117|
g|-------------------------------------------------------------------|
d|-------------------------------------------------------------------|
a|-------------------------------------------------------------------|
E|-------------------------------------------------------------------|

e|---|
b|---|
g|---|
d|5/3|
a|5/3|
E|3/1|


e|------|
b|------|
g|--7--9|
d|--7--9|
a|655657|
E|65-65-|

e|------|
b|------|
g|------|
d|957975|
a|957975|
E|735753|

e|----|
b|----|
g|----|
d|5453|
a|5453|
E|3231|

e|46-----4-6643643|
b|--64--6-4-643643|
g|----46----------|
d|----------------|
a|----------------|
E|----------------|

e|-----|
b|-----|
g|-----|
d|----9|
a|7/9/9|
E|0/0/7|

after that i just play random things for 3 minutes until the song is over i remember we 
this song at like 1 in the morning.....good times
Tap to rate this tab
 
# A B C D E F G H I J K L M N O P Q R S T U V W X Y Z