Song name
# A B C D E F G H I J K L M N O P Q R S T U V W X Y Z

Misc Unsigned Bands - The Immortal Change - Rain Chaing Colours tab

this is our newest song as of october 3 2006,

INTRO
LEAD
e|---------------------------------------|
b|---------------------------------------|
g|---------------------------------------|
d|---11-----11----9---9---7---7---5---5--|
a|-11--11-11--11-9-9-9-9-7-7-7-7-5-5-5-5-|
E|9------9------7---7---5---5---3---3----|x2

RYTHM
e|----------------------------------------|
b|----------------------------------------|
g|----------------------------------------|
d|1111111111111111999999997777777755555555|
a|1111111111111111999999997777777755555555|
E| 9 9 9 9 9 9 9 9777777775555555533333333| play 5 times come in after lead plays intro 
and this is the verse

Bridge-lead, play this while rythm keeps doing the part above, do this the last time 
plays that

e|--------------------------------------------------------|
b|--------------------------------------------------------|
g|xxxxxxxxxxxxxxxxxxxxxxxxxxxxxxxxxxxxxxxxxxxxxxxxxxxxxxxx|
d|11111111111111119999999913131313131313131515151515151515|
a|11111111111111119999999913131313131313131515151515151515|
E| 9 9 9 9 9 9 9 97777777711111111111111111313131313131313|

CHORUS, im not sure what the rythm part is

e|-----------------------------------|
b|-----------------------------------|
g|---10------9-------10-------12-----|
d|-10--10---9-9----10--10----12-12---|
a|8------x27----x28------x210------x2|
E|-----------------------------------|x2


RYTHM
e|----------------------------------------|
b|----------------------------------------|
g|----------------------------------------|
d|1111111111111111999999997777777755555555|
a|1111111111111111999999997777777755555555|
E| 9 9 9 9 9 9 9 9777777775555555533333333|x4

Lead

e|--------------------------------|
b|--------------------------------|
g|xxxxxxxxxxxxxxxxxxxxxxxxxxxxxxxx|
d|xxxxxxxxxxxxxxxxxxxxxxxxxxxxxxxx|
a|xxxxxxxxxxxxxxxxxxxxxxxxxxxxxxxx|
E|xxxxxxxxxxxxxxxxxxxxxxxxxxxxxxxx|play to the same beat as the rythm

Bridge

e|--------------------------------------------------------|
b|--------------------------------------------------------|
g|xxxxxxxxxxxxxxxxxxxxxxxxxxxxxxxxxxxxxxxxxxxxxxxxxxxxxxxx|
d|11111111111111119999999913131313131313131515151515151515|
a|11111111111111119999999913131313131313131515151515151515|
E| 9 9 9 9 9 9 9 97777777711111111111111111313131313131313|play this once before chorus again

CHORUS

e|-------------------------------------------0000000000000000|
b|0000000000000000-99999999-1010101010101010-1212121212121212|
g|1010101010101010-99999999-1010101010101010-1212121212121212|
d|1010101010101010-99999999-1010101010101010-1212121212121212|
a| 8 8 8 8 8 8 8 8-77777777- 8 8 8 8 8 8 8 8-1010101010101010|
E| x x x x x x x x-xxxxxxxx- x x x x x x x x- x x x x x x x x|


e|-----------------------------------------|
b|-----------------------------------------|
g|11----11---111111111110101010109999988888|
d|11----11---111111111110101010109999988888|
a|-9-----9----9-9-9-9-9-8-8-8-8-87777766666|
E|-----------1010101010-9-9-9-9-98888877777|

e|------------------------|
b|151515131313121212101010|
g| x x x x x x x x x x x x|
d|121212101010 9 9 9 7 7 7|
a|------------------------|
E|------------------------|x4

e|------------------------|
b|101010151515131313121212|
g| x x x x x x x x x x x x|
d| 7 7 7121212101010 9 9 9|
a|------------------------|
E|------------------------|x2

e|------------------------|
b|101010171717151515141414|
g| x x x x x x x x x x x x|
d| 7 7 7141414121212111111|
a|------------------------|
E|------------------------|

e|------------------------------------------------|
b|101010151515131313121212------------------------|
g| x x x x x x x x x x x x------------------------|
d| 7 7 7121212101010 9 9 9 14~~~~12~~~~11~~~~9~~~~|
a|------------------------------------------------|
E|------------------------------------------------|

i put it intermediate kuz its kinda at the end part to make it sound good
Tap to rate this tab
 
# A B C D E F G H I J K L M N O P Q R S T U V W X Y Z