Song name
# A B C D E F G H I J K L M N O P Q R S T U V W X Y Z

Misc Unsigned Bands - 8 Days To Sunday - Falling Faster tab

It took me ages to work out this song. An' I know it's 100% correct. I've watched them play it live.

Anyway...

x - Don't play that string.
. - Palm mute.
~ - Let ring


Intro pt. I - Guitar 1
e|-------------------------------------------|
d|-------------------------------------------|
g|--9-9-9-9-9-9-9-9--10-10-10-12-12-12-12----|
b|--x-x-x-x-x-x-x-x--x-x-x-x--x--x--x--x-----|X2
a|--7-7-7-7-7-7-7-7--8-8-8-8--10-10-10-10----|
e|-------------------------------------------|

Then Pick slide.

Intro pt. II - Guitar 1 and 2
e|--------------------------------------------------------|
d|--------------------------------------------------------|
g|--------------------------------------------------------|
b|---------------444444444444-666666666666----------------|X2
a|-2222222222222-222222222222-444444444444-666666-444444--|
e|-0000000000000---------------------------444444-222222--|


Verse 1 - Guitar 1 and 2.
e|--------------------------------------------------------|
d|--------------------------------------------------------|
g|--------------------------------------------------------|
b|---------44------66-------------------------------------|
a|-22------22------44------66---44------------------------|
e|-00----------------------44---22------------------------|

e|--------------------------------------------------------|
d|--------------------------------------------------------|
g|--------------------------------------------------------|
b|---------44------66-------------------------------------|
a|-22------22------44------66---44------------------------|
e|-00----------------------44---22------------------------|
   ..      ..      ..      ..   ..


Pre-Chorus - Guitar 1 and 2.
e|--------------------------------------------------------|
d|--------------------------------------------------------|
g|--------------------------------------------------------|
b|-77777777-----------------------------------------------|
a|-55555555-88888888-55555555-77777777--------------------|
e|----------66666666-33333333-55555555--------------------|
  ......... ........ ........ ........

Chorus - Guitar 2
e|--------------------------------------------------------|
d|--------------------------------------------------------|
g|--------------------------------------------------------|
b|-77777777-----------------------------------------------|
a|-55555555-88888888-55555555-77777777--------------------|X2
e|----------66666666-33333333-55555555--------------------|

Guitar 1.
e|---5--3-----5--3----------------------------------------|
d|-33-3-----33--3-----8~----6~----22335-------------------|
g|--------------------------------------------------------|
b|--------------------------------------------------------|
a|--------------------------------------------------------|X2
e|--------------------------------------------------------|

Verse 2 - Guitar 1 and 2.
e|--------------------------------------------------------|
d|--------------------------------------------------------|
g|--------------------------------------------------------|
b|---------44------66-------------------------------------|
a|-22------22------44------66---44------------------------|
e|-00----------------------44---22------------------------|

e|--------------------------------------------------------|
d|--------------------------------------------------------|
g|--------------------------------------------------------|
b|---------44------66-------------------------------------|
a|-22------22------44------66---44------------------------|
e|-00----------------------44---22------------------------|
   ..      ..      ..      ..   ..


Pre-Chorus - Guitar 1 and 2.
e|--------------------------------------------------------|
d|--------------------------------------------------------|
g|--------------------------------------------------------|
b|-77777777-----------------------------------------------|
a|-55555555-88888888-55555555-77777777--------------------|
e|----------66666666-33333333-55555555--------------------|
  ......... ........ ........ ........

Chorus - Guitar 2
e|--------------------------------------------------------|
d|--------------------------------------------------------|
g|--------------------------------------------------------|
b|-77777777-----------------------------------------------|
a|-55555555-88888888-55555555-77777777--------------------|X2
e|----------66666666-33333333-55555555--------------------|

Guitar 1.
e|---5--3-----5--3----------------------------------------|
d|-33-3-----33--3-----8~----6~----22335-------------------|
g|--------------------------------------------------------|
b|--------------------------------------------------------|
a|--------------------------------------------------------|X2
e|--------------------------------------------------------|

Bridge - Guitar 1
e|---5--3-----5--3----------------------------------------|
d|-33-3-----33--3-----8~----6~----22335-------------------|
g|--------------------------------------------------------|
b|--------------------------------------------------------|
a|--------------------------------------------------------|X2
e|--------------------------------------------------------|

Chorus
e|--------------------------------------------------------|
d|--------------------------------------------------------|
g|--------------------------------------------------------|
b|-77777777-----------------------------------------------|
a|-55555555-88888888-55555555-77777777--------------------|X2
e|----------66666666-33333333-55555555--------------------|

Guitar 1.
e|---5--3-----5--3----------------------------------------|
d|-33-3-----33--3-----8~----6~----22335-------------------|
g|--------------------------------------------------------|
b|--------------------------------------------------------|
a|--------------------------------------------------------|X2
e|--------------------------------------------------------|
Tap to rate this tab
# A B C D E F G H I J K L M N O P Q R S T U V W X Y Z