Song name
# A B C D E F G H I J K L M N O P Q R S T U V W X Y Z

Misc Unsigned Bands - Guard Rails - Sleep tab

Help us improve GuitareTab! Take a short survey!
				      Sleep

#----------------------------------PLEASE NOTE---------------------------------#
#This file is the author's own work and represents their interpretation of the #
#song. You may only use this file for private study, scholarship, or research. #
#------------------------------------------------------------------------------#

   Short    Extended Intro

e-|--------|-----------------|
B-|--------|-----------------|
G-|-2-4----|-2p0-----4p2p0---|
D-|-----2--|-----4-5-------2-|
A-|--------|-----------------|
E-|--------|-----------------|


E	     G
Good night I say to you

D		     A
Alright, you say the evening's through

E      G
As I walk to my bed

D		  A
I'll admit I'm a little sad



D2			A		
When I begin to sleep I fall

		     D2
And crash down to my knees

		     A
I'm praying God save me

	  	D2
From all my misery

				A
Some dreams were meant to come true

		D2
But I'll never sleep

		A
Until I can see you



E		G
Oh my, girl you say

D		   A
Go die and try to sleep beneath the waves

E		G
I know as you walk to your bed

D		      A
You've got to have me in your head



D2			A		
When I begin to sleep I fall

		     D2
And crash down to my knees

		     A
I'm praying God save me

	  	D2
From all my misery

				A
Some dreams were meant to come true

		D2
But I'll never sleep

		A
Until I can see you



D2			A		
When I begin to sleep I fall

		     D2
And crash down to my knees

		     A
I'm praying God save me

	  	D2
From all my misery

				A
Some dreams were meant to come true

		D2
But I'll never sleep

		A
Until I can see you


|--D2---/--A---| 4x

Guitar Solo:

   D2		       A	      D2	      	   A
e-|------------------|-------------|-10vvv---12--14--12--|----------12----12-----|
B-|-12-10--12-10-12--|-10vvvvvv----|---------------------|-10vvv-10----10----10--|
G-|------------------|-------------|---------------------|-----------------------|
D-|------------------|-------------|---------------------|-----------------------|
A-|------------------|-------------|---------------------|-----------------------|
E-|------------------|-------------|---------------------|-----------------------|

   D2
e-|----------17----------17----------17----------17----17----17----17----17------|
B-|-15-15-15----15-15-15----15-15-15----15-15-15----15----15----15----15----15---|
G-|------------------------------------------------------------------------------|
D-|------------------------------------------------------------------------------|
A-|------------------------------------------------------------------------------|
E-|------------------------------------------------------------------------------|

   A
e-|----------12----------12----------12----------12----12----12----12----12------|
B-|-10-10-10----10-10-10----10-10-10----10-10-10----10----10----10----10----10---|
G-|------------------------------------------------------------------------------|
D-|------------------------------------------------------------------------------|
A-|------------------------------------------------------------------------------|
E-|------------------------------------------------------------------------------|

   D2
e-|----------17----------17----------17----------17----17----17----17----17------|
B-|-15-15-15----15-15-15----15-15-15----15-15-15----15----15----15----15----15---|
G-|------------------------------------------------------------------------------|
D-|------------------------------------------------------------------------------|
A-|------------------------------------------------------------------------------|
E-|------------------------------------------------------------------------------|

   A
e-|----------12----------12----------12----------12----12----12--14--12---10-----|
B-|-10-10-10----10-10-10----10-10-10----10-10-10----10----10---------------------|
G-|------------------------------------------------------------------------------|
D-|------------------------------------------------------------------------------|
A-|------------------------------------------------------------------------------|
E-|------------------------------------------------------------------------------|

   D2				 A		  D2
e-|----------------------------|----------------|-10vvvvvvvvvv---12--14--12--10--|
B-|-10vvvvvv-10vvvvvv--12--10--|--9b10-10vvvvv--|--------------------------------|
G-|----------------------------|----------------|--------------------------------|
D-|----------------------------|----------------|--------------------------------|
A-|----------------------------|----------------|--------------------------------|
E-|----------------------------|----------------|--------------------------------|

   A				 	    D2
e-|-12--------12---------12-------12--------|-12-------12-------12vvvvvvvvv------|
B-|----10-10------10-10-----10-10----10-10--|----10-10----10-10------------------|
G-|-----------------------------------------|------------------------------------|
D-|-----------------------------------------|------------------------------------|
A-|-----------------------------------------|------------------------------------|
E-|-----------------------------------------|------------------------------------|
Related for Guard Rails - Sleep tab