Song name
# A B C D E F G H I J K L M N O P Q R S T U V W X Y Z

Misc Unsigned Bands - Sweden - Confusingly Dissapointingly Happily Alone tab

Help us improve GuitareTab! Take a short survey!
SETTINGS:
-Guitar:
 *Treble=3
 *Bass=6
 *2nd
-Amp:
 *Treble=-10
 *Bass=0
 *OD=Off

 Cm							    F#m
e|-------------------3-3--------------------------3-3---------------------2-2-----------------------------|
B|-------4-4---4-4---------4-4--------4-4---4-4---------4-4---------2-2---2-2---2-2---------2-2-----------|
G|-----5-----5-----5-----5-----5----5-----5-----5-----5-----5-----2-2-2-2-----2-2-2-2-2-2---2-2---2-2-----|
D|------------------------------------------------------------------------------------4-4-4-----4-4-4-4---|
A|--3----------------------------3-----------------------------4------------------------------------------|
E|------------------------------------------------------------------------------------------------------2-|

 Em								  D		   Em		 C
|--0-------0-0-------0-0----2-----0--------0-0-------0-0----2-----2--------2-2-----0----------0--0--0-------|
|--0---0---------0----------3-----0----0---------0----------3-----3----3-----------0-------------1------1---|
|--0-----------0------------------0------------0------------2-----2------2---------0------0------0------0---|
|--2-----2---------------0--------2------2---------------2--------0--------------0-2----2--------2--------2-|
|--2--2------------2-----2--------2--2-------------2-----2--------0--0-------------2--2----------3----3-----|
|--0------------------------------0-------------------------------0----------------0-------------0----------|

 D	G
|2--2h3-3------3-3-3------|
|3------0-------------0---|
|2------0----0------------|
|0------0-----------------|
|0------2--2--------------|
|0------3---------------3-|

(C)

*Friday
*6th October 2006
Related for Sweden - Confusingly Dissapointingly Happily Alone tab