Song name
# A B C D E F G H I J K L M N O P Q R S T U V W X Y Z

Misc Unsigned Bands - The Vespas - You Said The Reason tab

Standard Tuning
EADGBE

Intro - Slight Distortion

|--10-10---12-12---10-10---10---|
|--10-10---10-10---12-12---10---|
|--11-11---11-11---11-11---11---|   x3  - drums + Bass enter 
|-------------------------------|         second time through
|-------------------------------|
|-------------------------------|


|--1010-101010---9-9--9-9-9----22-222---33-333------|
|--1010-101010---1010-101010---33-333---33-333------|
|--1111-111111---9-9--9-9-9----22-222---44-444------|   x2
|--0-0--0-0-0----0-0--0-0-0----00-000---00-000------|
|---------------------------------------------------|
|---------------------------------------------------|


|--1010-101010---9-9--9-9-9----22-222---33333333----|
|--1010-101010---1010-101010---33-333---33333333----|
|--1111-111111---9-9--9-9-9----22-222---44444444----|    
|--0-0--0-0-0----0-0--0-0-0----00-000---00000000----|
|---------------------------------------------------|
|---------------------------------------------------|


Tabbed by GAz

www.myspace.com/thevespasrock
www.thevespas.tk
Tap to rate this tab
 
# A B C D E F G H I J K L M N O P Q R S T U V W X Y Z