Song name
# A B C D E F G H I J K L M N O P Q R S T U V W X Y Z

Misc Unsigned Bands - Guard Rails - Why tab

				       Why

#----------------------------------PLEASE NOTE---------------------------------#
#This file is the author's own work and represents their interpretation of the #
#song. You may only use this file for private study, scholarship, or research. #
#------------------------------------------------------------------------------#

TUNED DOWN ONE HALF STEP

Electric Guitar Intro (*):

e-|----------|----------------------------------|
B-|----------|--------------------------------o-|
G-|----------|--12---14b15r14--14b15r14--12-----|
D-|---12h14--|----------------------------------|
A-|----------|--------------------------------o-|
E-|----------|----------------------------------|


G	D/F#	Am

G	D/F#	Am

*G	D/F#	Am

*G	D/F#	Am


G     Am		G
On a cold dark friday night

      Am	      G  D/F#      Am
Everything was going right    with you

G     Am	    G
The next day I woke up

           Am 		 G  D/F#	Am
And life seemed to be so tough without you

G            Am           G
Why did you leave me all alone

	Am	     G   D/F#	   Am
To be beaten and be stoned 	Oh no


*G	D/F#	Am

*G	D/F#	Am


Am       C       G
Why, oh why, oh why

                 D/F#  Am
Did you leave me all alone

C   G
Tonight

Am       C       G
Why, oh why, oh why

                 D/F#  Am
Did you leave me on my own

C    G
To fight

            D/F#   Am
This battle on my own

    G		D/F#	Am
Without you


G	Am	C	Am

*G	D/F#	Am

*G	D/F#	Am


G     Am		G
If I told you you were wrong

            Am	            G  D/F#             Am
Would you leave me on your own 		without you

G     Am		G
If I had to let you know

   Am	        G  D/F#      Am
I had to let it go on without you

G         Am		    G
Wouldn't you have held me there

          Am	            G  D/F#         Am
If your feelings weren't so bare 	and broken


*G	D/F#	Am

*G	D/F#	Am


Am       C       G
Why, oh why, oh why

                 D/F#  Am
Did you leave me all alone

C   G
Tonight

Am       C       G
Why, oh why, oh why

                 D/F#  Am
Did you leave me on my own

C    G
To fight

            D/F#   Am
This battle on my own

    G		D/F#	Am
Without you


Solo Rhythm:

G	D/F#	Am  (8x)

End on G


Solo:

           G	     D/F#	   Am				G	D/F#  Am
e-|------------------------------------------------------------------------------|
B-|------------------------------------13-12-------------------------------------|
G-|--------12--14b15r14--14b15r14--12--------14-12-------------12-14-14b15r14-12-|
D-|-12h14------------------------------------------14-12-12-14-------------------|
A-|------------------------------------------------------------------------------|
E-|------------------------------------------------------------------------------|

	   G	     D/F#     Am
e-|------------------------------------------------------------------------------|
B-|-------12-----12-13--12-13-15-13-12-13-15-13-12-13-15p13p12-15p13p12-15p13p12-|
G-|-12h14-----14-----------------------------------------------------------------|
D-|------------------------------------------------------------------------------|
A-|------------------------------------------------------------------------------|
E-|------------------------------------------------------------------------------|

    G					  D/F#
e-|------------------------------------------------------------------------------|
B-|--15p13p12-15p13p12-15p13p12-15p13p12--15p13p12-15p13p12-15p13p12-15p13p12----|
G-|------------------------------------------------------------------------------|
D-|------------------------------------------------------------------------------|
A-|------------------------------------------------------------------------------|
E-|------------------------------------------------------------------------------|

    Am					  
e-|------------------------------------------------------------------------------|
B-|--15p13p12-15p13p12-15p13p12-15p13p12--15b17-15b17-15b17-15b17-15b17r15-13p12-|
G-|------------------------------------------------------------------------------|
D-|------------------------------------------------------------------------------|
A-|------------------------------------------------------------------------------|
E-|------------------------------------------------------------------------------|

    G		  D/F#		  Am	 	G	     D/F              Am
e-|------------------------------------------------------------------------------|
B-|-----------------------------------15-13-12-----------------------------------|
G-|-12---12h14-14b15r14-14b15r14--12------------12---12h14-14b15r14-14b15r14--12-|
D-|------------------------------------------------------------------------------|
A-|------------------------------------------------------------------------------|
E-|------------------------------------------------------------------------------|

          G	  D/F#	        Am			    G	       D/F#   Am
e-|------------------------------------------------------------------------------|
B-|---------------------------------13-12----------------------------------------|
G-|-------12-14b15r14-14b15r14--12--------14-12-------------12-14-14b15r14-14-12-|
D-|-12h14---------------------------------------14-12-12h14----------------------|
A-|------------------------------------------------------------------------------|
E-|------------------------------------------------------------------------------|
Tap to rate this tab
# A B C D E F G H I J K L M N O P Q R S T U V W X Y Z