Song name
# A B C D E F G H I J K L M N O P Q R S T U V W X Y Z

Misc Unsigned Bands - Bmx Infested - The First Chapter tab

INTRO:

This part is played slow...

e|--------------------------------------------------------------------------|
b|-----10----10----9----9----8----8----9----9----10----10----9----9----8----|
A|---7-----7----7----7----7----7----7-----7----7-----7----7----7-----7------|
D|--------------------------------------------------------------------------|
A|--------------------------------------------------------------------------|
E|--------------------------------------------------------------------------|

e|--------------|
b|------8-------|
A|---7-----7----|
D|--------------|
A|--------------|
E|--------------|

This part is played faster...

e|--------------------------------------------------------------------------|
b|--------------------------------------------------------------------------|
A|--------------------------------------------------------------------------|
D|--------------------------------------------------------------------------|
A|-3--3--3--3--4--3--3--3--3--3--3--3--3--4--3--3--3--3--3--3--3--3---------|
E|-3--3--3--3--4--3--3--3--3--3--3--3--3--4--3--3--3--3--3--3--3--3---------|

e|--------------------------------------------------------------------------|
b|--------------------------------------------------------------------------|
A|--------------------------------------------------------------------------|
D|--------------------------------------------------------------------------|
A|-4--3--3--3--3--3--3--3--3--4--3--3--3--3--7--7--7--7--8--7--7--7---------|
E|-4--3--3--3--3--3--3--3--3--4--3--3--3--3--7--7--7--7--8--7--7--7---------|

e|--------------------------------------------------------------------------|
b|--------------------------------------------------------------------------|
A|--------------------------------------------------------------------------|
D|--------------------------------------------------------------------------|
A|-7--7--7--7--7--8--7--7--7--7--7--7--7--7--8--7--7--7--7--5--5--5---------|
E|-7--7--7--7--7--8--7--7--7--7--7--7--7--7--8--7--7--7--7--5--5--5---------|

e|--------------------------------------------|
b|--------------------------------------------|
A|--------------------------------------------|
D|--------------------------------------------|
A|-5--6--5--5--5--5--5--5--5--5--6--5--5--3~--|
E|-5--6--5--5--5--5--5--5--5--5--6--5--5--3~--|
Tap to rate this tab
 
# A B C D E F G H I J K L M N O P Q R S T U V W X Y Z