Guitaretab - guitar tabs
Song name
# A B C D E F G H I J K L M N O P Q R S T U V W X Y Z

Misc Unsigned Bands - White Matter - Pain tab

ok. here it is. enjoy. its tuning is CGCFAD.
                                    (654321)
/= FORWARD SLIDE
\= REVERSE SLIDE
VB= YOU VIBRATO THE STRING W/ A BEND

NOTE: DURING THE INTRO ITS A FADE-IN WITH SLIGHT DISTORTION. WHEN U GET TO THE VERSES, 
AND BRIDGE ITS MORE HEAVYER DISTORTION.

INTRO:
|-------------------------------|----------------------------| this is the
|-------------------------------|----------------------------| 11 and 12
|-------------------------------|----------------------------| fret.
|-9999-11-99-12-99-11-9-12-9-11-|-9999-11-99-12-99-11-9--5-5-|
|-------------------------------|----------------------------|
|-------------------------------|----------------------------|

VERSE 1:
|-------------------------------|----------------------------| same thing.
|-------------------------------|----------------------------| not 1. its 11
|-------------------------------|----------------------------| and 12
|-9999-11-99-12-99-11-9-12-9-11-|-9999-11-99-12-99-11-9--5-5-|
|-9999-11-99-12-99-11-9-12-9-11-|-9999-11-99-12-99-11-9--5-5-|
|-------------------------------|----------------------------|

VERSE 2:
|-------------------------------|----------------------------| same thing.
|-------------------------------|----------------------------|
|-------------------------------|----------------------------|
|-9999-11-99-12-99-11-9-12-9-11-|-9999-11-99-12-99-11-9--5-5-|
|-9999-11-99-12-99-11-9-12-9-11-|-9999-11-99-12-99-11-9--5-5-|
|-9999-11-99-12-99-11-9-12-9-11-|-9999-11-99-12-99-11-9--5-5-|

CHORUS:
|---------------------------|------------------------|
|---------------------------|------------------------|
|---------------------------|------------------------|
|-1-00-1-00-1-00-1-00-3-0-3-|-1-00-1-00-1-00-1-00-44-|
|-1-00-1-00-1-00-1-00-3-0-3-|-1-00-1-00-1-00-1-00-44-|
|-1-00-1-00-1-00-1-00-3-0-3-|-1-00-1-00-1-00-1-00-44-|

|---------------------------|------------------------|
|---------------------------|------------------------|
|---------------------------|------------------------|
|-1-00-1-00-1-00-1-00-3-0-3-|-1-00-1-00-1-00-1-00-55-|
|-1-00-1-00-1-00-1-00-3-0-3-|-1-00-1-00-1-00-1-00-55-| x2
|-1-00-1-00-1-00-1-00-3-0-3-|-1-00-1-00-1-00-1-00-55-|

VERSE 1:
|-------------------------------|----------------------------|
|-------------------------------|----------------------------|
|-------------------------------|----------------------------|
|-9999-11-99-12-99-11-9-12-9-11-|-9999-11-99-12-99-11-9--5-5-|
|-9999-11-99-12-99-11-9-12-9-11-|-9999-11-99-12-99-11-9--5-5-|
|-------------------------------|----------------------------|

VERSE 2:
|-------------------------------|----------------------------|
|-------------------------------|----------------------------|
|-------------------------------|----------------------------|
|-9999-11-99-12-99-11-9-12-9-11-|-9999-11-99-12-99-11-9--5-5-|
|-9999-11-99-12-99-11-9-12-9-11-|-9999-11-99-12-99-11-9--5-5-|
|-9999-11-99-12-99-11-9-12-9-11-|-9999-11-99-12-99-11-9--5-5-|

CHORUS:
|---------------------------|------------------------|
|---------------------------|------------------------|
|---------------------------|------------------------|
|-1-00-1-00-1-00-1-00-3-0-3-|-1-00-1-00-1-00-1-00-44-|
|-1-00-1-00-1-00-1-00-3-0-3-|-1-00-1-00-1-00-1-00-44-|
|-1-00-1-00-1-00-1-00-3-0-3-|-1-00-1-00-1-00-1-00-44-|

|---------------------------|------------------------|
|---------------------------|------------------------|
|---------------------------|------------------------|
|-1-00-1-00-1-00-1-00-3-0-3-|-1-00-1-00-1-00-1-00-55-|
|-1-00-1-00-1-00-1-00-3-0-3-|-1-00-1-00-1-00-1-00-55-|
|-1-00-1-00-1-00-1-00-3-0-3-|-1-00-1-00-1-00-1-00-55-|
[ Tab from: http://www.guitaretab.com/m/misc-unsigned-bands/79249.html ]
SOLO:
|-12121212-14-1212-15-1212-14-12-15-12-14-|
|-----------------------------------------|
|-----------------------------------------|
|-----------------------------------------|
|-----------------------------------------|
|-----------------------------------------|
                                             x2
|-12121212-14-1212-15-1212-14-12--99vb-|
|--------------------------------------|
|--------------------------------------|
|--------------------------------------|
|--------------------------------------|
|--------------------------------------|

VERSE 1:
|-------------------------------|----------------------------|
|-------------------------------|----------------------------|
|-------------------------------|----------------------------|
|-9999-11-99-12-99-11-9-12-9-11-|-9999-11-99-12-99-11-9--5-5-|
|-9999-11-99-12-99-11-9-12-9-11-|-9999-11-99-12-99-11-9--5-5-|
|-9999-11-99-12-99-11-9-12-9-11-|-9999-11-99-12-99-11-9--5-5-|

OK THIS ISNT ON THE 11TH FRET LIKE THE REST OF THE SONG. IT IS INDIVIDUAL 1ST FRETS. 
ITS SLIDES UP ALONG THE FRET BOARD. IT MAKES SENSE ONCE U PLAY IT.

BRIDGE:
|-------------------------|-------------------------|
|-------------------------|-------------------------|
|-------------------------|-------------------------|
|-------------------------|-------------------------|
|-11/7-33/5-22/3-11/2-111-|-11/7-33/5-22/3-55\2-111-| x2
|-11/7-33/5-22/3-11/2-111-|-11/7-33/5-22/3-55\2-111-|

CHORUS:
|---------------------------|------------------------|
|---------------------------|------------------------|
|---------------------------|------------------------|
|-1-00-1-00-1-00-1-00-3-0-3-|-1-00-1-00-1-00-1-00-44-|
|-1-00-1-00-1-00-1-00-3-0-3-|-1-00-1-00-1-00-1-00-44-|
|-1-00-1-00-1-00-1-00-3-0-3-|-1-00-1-00-1-00-1-00-44-|

|---------------------------|------------------------|
|---------------------------|------------------------|
|---------------------------|------------------------|
|-1-00-1-00-1-00-1-00-3-0-3-|-1-00-1-00-1-00-1-00-55-|
|-1-00-1-00-1-00-1-00-3-0-3-|-1-00-1-00-1-00-1-00-55-|
|-1-00-1-00-1-00-1-00-3-0-3-|-1-00-1-00-1-00-1-00-55-|

OUTRO:
|-3333-5-33-6-33-5-3-6-3-|-3333-5-33-6-33-5-3--11vb-|  <-this is 1 not 11.
|------------------------|--------------------------|
|------------------------|--------------------------|
|------------------------|--------------------------|
|------------------------|--------------------------| x2
|------------------------|--------------------------|

CHORUS:  (WITH EXTRA 5 AT END)
|---------------------------|------------------------|
|---------------------------|------------------------|
|---------------------------|------------------------|
|-1-00-1-00-1-00-1-00-3-0-3-|-1-00-1-00-1-00-1-00-44-|
|-1-00-1-00-1-00-1-00-3-0-3-|-1-00-1-00-1-00-1-00-44-|
|-1-00-1-00-1-00-1-00-3-0-3-|-1-00-1-00-1-00-1-00-44-|

|---------------------------|-------------------------|
|---------------------------|-------------------------|
|---------------------------|-------------------------|
|-1-00-1-00-1-00-1-00-3-0-3-|-1-00-1-00-1-00-1-00-555-|
|-1-00-1-00-1-00-1-00-3-0-3-|-1-00-1-00-1-00-1-00-555-|
|-1-00-1-00-1-00-1-00-3-0-3-|-1-00-1-00-1-00-1-00-555-|

OK, THATS IT. IT TOOK ME A BIT BUT I FOUND IT EASIER TO TAB IT ALL OUT. HOPE U ENJOY.

if u want lyrics, here they are:

intro:
Pain is not such a beautiful thing.
It will haunt you inside and out.

verse 1:
It will come in and you will not notice,
Until it nails you like a knife!
It will come in and you will not notice,
Untill it comes and gives you strife!

verse 2:
And it cuts deep inside!!
And it will not let go!!
It twists around 'till you hit the ground,
Cutting and Slicing all around!

chorus:
And my Pain is coming out again!
Cutting and Slicing inside1
And my Pain is coming through again!
And there are no reasons why!

bridge:
Cutting, Slicing, and Slashing all around!
Revealing what is lost but not what is found!
Cutting, Slicing, and Slashing all around!
Revealing what is hidden in the underground!

*badguitarist13*
Related for White Matter - Pain tab
Advertisement will be closed in 10 seconds