Song name
# A B C D E F G H I J K L M N O P Q R S T U V W X Y Z

Misc Unsigned Bands - 5 Degrees Kelvin - Get Lost tab

Main Riff:
--------------------------------------------------------|
--------------------------------------------------------|
--------------------------------------------------------|
--7777777--0000000--9999999--7777777--------------------|    repeat 3x
--7777777--0000000--9999999--7777777--------------------|
--5555555--0000000--7777777--5555555--------------------|

Singing Riff:
-----------------------------------------------------------------------|
-----------------------------------------------------------------------|
-----------------------------------------------------------------------|
--7-------7-----0---------0-----------9-------------9----------7-------|
--7-------7-----0---------0-----------9-------------9----------7-------|
--5-------5-----0---------0-----------7-------------7----------5-------|
Chorus:repeat 4x
------------------------------------------------------------------------|
------------------------------------------------------------------------|
------------------------------------------------------------------------|
-----------------------------------------------------------------------|
---------777---999---5/7\5----------------------------------------------|
--555-------------------------------------------------------------------|
Main Riff:
--------------------------------------------------------|
--------------------------------------------------------|
--------------------------------------------------------|
--7777777--0000000--9999999--7777777--------------------|    repeat 3x
--7777777--0000000--9999999--7777777--------------------|
--5555555--0000000--7777777--5555555--------------------|
Singing Riff:repeat 3x
---------------------------------------------------------------------|
---------------------------------------------------------------------|
---------------------------------------------------------------------|
--7-------7-----0---------0-----------9-------------9----------7-----|
--7-------7-----0---------0-----------9-------------9----------7-----|
--5-------5-----0---------0-----------7-------------7----------5-----|
Chorus: repeat 4x
-----------------------------------------------------------------------|
-----------------------------------------------------------------------|
-----------------------------------------------------------------------|
----------------------------------------------------------------------|
---------777---999---5/7/5---------------------------------------------|
--555------------------------------------------------------------------|

Singing Riff:
----------------------------------------------------------------------------|
----------------------------------------------------------------------------|
----------------------------------------------------------------------------|
--7-------7-----0---------0-----------9-------------9----------7------------|
--7-------7-----0---------0-----------9-------------9----------7------------|
--5-------5-----0---------0-----------7-------------7----------5------------|

Chorus:repeat 4x
-----------------------------------------------------------------------|
-----------------------------------------------------------------------|
-----------------------------------------------------------------------|
----------------------------------------------------------------------|
---------777---999---5/7/5---------------------------------------------|
--555------------------------------------------------------------------|


ending
Tap to rate this tab
# A B C D E F G H I J K L M N O P Q R S T U V W X Y Z