Song name
# A B C D E F G H I J K L M N O P Q R S T U V W X Y Z

Misc Unsigned Bands - Victorious Failure - Nothing And Everything tab

Intro

Guitar 1- Lead Guitar
Guitar 2-Rhythm Guitar
Bass can substitute for Guitar 2 if needed


Guitar 1
|-----7--9--7--------5--7--5--------3--5--3--------3--3----|
|--9--9------9----7--7------7----5--5------5--3--5--5------|
|----------------------------------------------------------|  x2
|----------------------------------------------------------|
|----------------------------------------------------------|
|----------------------------------------------------------|

Guitar 2 or Bass
|----------------------------------------------------------|
|----------------------------------------------------------|
|----------------------------------------------------------|  x2
|----------------------------------------------------------|
|-----7--9--7--------5--7--5--------3--5--3--------3--3----|
|--9--9------9----7--7------7----5--5------5--3--5--5------|

Guitar 1
|----------------------------------|
|----------------------------------|
|----------------------------------|
|---0--0--0--0--0--0--0--0---------|
|---0--0--0--0--0--0--0--0---------|
|---0--0--0--0--0--0--0--0---------|

Verse:

Guitar 1
|----------------------------------------------------------|
|----------------------------------------------------------|
|----------------------------------------------------------|
|--4-4-4-4-4-4-4-4-4-4-4-4-4-4-4-4--(16)-------------------|
|--2-2-2-2-2-2-2-2-2-2-2-2-2-2-2-2-------------------------|
|----------------------------------------------------------|

|----------------------------------------------------------|
|----------------------------------------------------------|
|----------------------------------------------------------|
|-0-0-0-3-0-0-0-5-0-0-0-3-0-0-0-5--------------------------|
|-0-0-0-3-0-0-0-5-0-0-0-3-0-0-0-5--------------------------|
|-0-0-0-3-0-0-0-5-0-0-0-3-0-0-0-5--3-4-5-6-----------------|

|-------------------------------------------------------------------|
|-------------------------------------------------------------------|
|-------------------------------------------------------------------|
|-2-2-2-2-2-2-2-2---------------------------------------------------|
|-0-0-0-0-0-0-0-0-2-2-2-2-2-2-2-2--4-4-4-4-4-4-4-4-4-4-4-4-4-4-4-4--|
|-----------------0-0-0-0-0-0-0-0--2-2-2-2-2-2-2-2-2-2-2-2-2-2-2-2--|

|----------------------------------------------------------|
|----------------------------------------------------------|
|----------------------------------------------------------|
|-0-0-0-3-0-0-0-5-0-0-0-3-0-0-0-5--------------------------|
|-0-0-0-3-0-0-0-5-0-0-0-3-0-0-0-5--------------------------|
|-0-0-0-3-0-0-0-5-0-0-0-3-0-0-0-5--3-4-5-6-----------------|

Chorus:

Guitar 1
|-17-15-13---17-15-13----17--13-15-17--13-15-17-----15-13-12--15-13-12----15--12-13-15--12-13------|
|---------15---------15----15--------15---------------------13--------13----13--------13-----------|
|--------------------------------------------------------------------------------------------------|
|--------------------------------------------------------------------------------------------------|
|--------------------------------------------------------------------------------------------------|
|--------------------------------------------------------------------------------------------------|

|-13-12-10---13-12-10-----13--10-12--13--10-12---10-12-13-15-13-12--12-13-12--13-15-13-12-10~~-----|
|---------12---------12-----12---------12-------------------------13--------13---------------------|
|--------------------------------------------------------------------------------------------------|
|--------------------------------------------------------------------------------------------------|
|--------------------------------------------------------------------------------------------------|
|--------------------------------------------------------------------------------------------------|

Solo 1:

Guitar 1
|---------------------------------------15-14-13-14-15-13-----------------------------|
|----------------------------15-14-13-14-----------------15-13------------------------|
|-----------------15-14-13-14---------------------------------15-13-------------------|
|------15-14-13-14-------------------------------------------------15-13--------------|
|-15-14-----------------------------------------------------------------15-13---------|
|----------------------------------------------------------------------------15-13----|

Verse 2:

Guitar 1
|----------------------------------------------------------|
|----------------------------------------------------------|
|----------------------------------------------------------|
|--4-4-4-4-4-4-4-4-4-4-4-4-4-4-4-4--(16)-------------------|
|--2-2-2-2-2-2-2-2-2-2-2-2-2-2-2-2-------------------------|
|----------------------------------------------------------|

|----------------------------------------------------------|
|----------------------------------------------------------|
|----------------------------------------------------------|
|-0-0-0-3-0-0-0-5-0-0-0-3-0-0-0-5--------------------------|
|-0-0-0-3-0-0-0-5-0-0-0-3-0-0-0-5--------------------------|
|-0-0-0-3-0-0-0-5-0-0-0-3-0-0-0-5--3-4-5-6-----------------|

|-------------------------------------------------------------------|
|-------------------------------------------------------------------|
|-------------------------------------------------------------------|
|-2-2-2-2-2-2-2-2---------------------------------------------------|
|-0-0-0-0-0-0-0-0-2-2-2-2-2-2-2-2--4-4-4-4-4-4-4-4-4-4-4-4-4-4-4-4--|
|-----------------0-0-0-0-0-0-0-0--2-2-2-2-2-2-2-2-2-2-2-2-2-2-2-2--|

|----------------------------------------------------------|
|----------------------------------------------------------|
|----------------------------------------------------------|
|-0-0-0-3-0-0-0-5-0-0-0-3-0-0-0-5--------------------------|
|-0-0-0-3-0-0-0-5-0-0-0-3-0-0-0-5--------------------------|
|-0-0-0-3-0-0-0-5-0-0-0-3-0-0-0-5--3-4-5-6-----------------|

Chorus:

Guitar 1
|-17-15-13---17-15-13----17--13-15-17--13-15-17-----15-13-12--15-13-12----15--12-13-15--12-13------|
|---------15---------15----15--------15---------------------13--------13----13--------13-----------|
|--------------------------------------------------------------------------------------------------|
|--------------------------------------------------------------------------------------------------|
|--------------------------------------------------------------------------------------------------|
|--------------------------------------------------------------------------------------------------|

|-13-12-10---13-12-10-----13--10-12--13--10-12---10-12-13-15-13-12--12-13-12--13-15-13-12-10~~-----|
|---------12---------12-----12---------12-------------------------13--------13---------------------|
|--------------------------------------------------------------------------------------------------|
|--------------------------------------------------------------------------------------------------|
|--------------------------------------------------------------------------------------------------|
|--------------------------------------------------------------------------------------------------|

Solo 2:

Guitar 1
|---------11-10--------------11-10-12-11-10--------------11-10-13-12-11-10------------------------------------------|
|-12-11-10-----11-10-12-11-10--------------11-10-12-11-10-----------------11-10-------------------------------------|
|------------------------------------------------------------------------------11-10--------------------------------|
|-----------------------------------------------------------------------------------11-10---------------------------|
|----------------------------------------------------------------------------------------11-10-12-14-14-12-11-9-8-9-|
|-------------------------------------------------------------------------------------------------------------------|

Verse 3:

Guitar 1
|----------------------------------------------------------|
|----------------------------------------------------------|
|----------------------------------------------------------|
|--4-4-4-4-4-4-4-4-4-4-4-4-4-4-4-4--(16)-------------------|
|--2-2-2-2-2-2-2-2-2-2-2-2-2-2-2-2-------------------------|
|----------------------------------------------------------|

|----------------------------------------------------------|
|----------------------------------------------------------|
|----------------------------------------------------------|
|-0-0-0-3-0-0-0-5-0-0-0-3-0-0-0-5--------------------------|
|-0-0-0-3-0-0-0-5-0-0-0-3-0-0-0-5--------------------------|
|-0-0-0-3-0-0-0-5-0-0-0-3-0-0-0-5--3-4-5-6-----------------|

|-------------------------------------------------------------------|
|-------------------------------------------------------------------|
|-------------------------------------------------------------------|
|-2-2-2-2-2-2-2-2---------------------------------------------------|
|-0-0-0-0-0-0-0-0-2-2-2-2-2-2-2-2--4-4-4-4-4-4-4-4-4-4-4-4-4-4-4-4--|
|-----------------0-0-0-0-0-0-0-0--2-2-2-2-2-2-2-2-2-2-2-2-2-2-2-2--|

|----------------------------------------------------------|
|----------------------------------------------------------|
|----------------------------------------------------------|
|-0-0-0-3-0-0-0-5-0-0-0-3-0-0-0-5--------------------------|
|-0-0-0-3-0-0-0-5-0-0-0-3-0-0-0-5--------------------------|
|-0-0-0-3-0-0-0-5-0-0-0-3-0-0-0-5--3-4-5-6-----------------|

Chorus:

Guitar 1
|-17-15-13---17-15-13----17--13-15-17--13-15-17-----15-13-12--15-13-12----15--12-13-15--12-13------|
|---------15---------15----15--------15---------------------13--------13----13--------13-----------|
|--------------------------------------------------------------------------------------------------|
|--------------------------------------------------------------------------------------------------|
|--------------------------------------------------------------------------------------------------|
|--------------------------------------------------------------------------------------------------|

|-13-12-10---13-12-10-----13--10-12--13--10-12---10-12-13-15-13-12--12-13-12--13-15-13-12-10~~-----|
|---------12---------12-----12---------12-------------------------13--------13---------------------|
|--------------------------------------------------------------------------------------------------|
|--------------------------------------------------------------------------------------------------|
|--------------------------------------------------------------------------------------------------|
|--------------------------------------------------------------------------------------------------|

Interlude:

Guitar 1
|-1--1--1--1---1------------1------------1------------1---1---1---1----------|
|--3--3--3--3---2-3-----3-2--2-3-----3-2--2-3-----3-2--3---3---3---3---------|
|---2b-2b-2b-2b-----2-3-5--------2-3-5--------2-3-5------2b---2b---2b---2b---|
|----------------------------------------------------------------------------|
|----------------------------------------------------------------------------|
|----------------------------------------------------------------------------|

Chorus:

Guitar 1
|-17-15-13---17-15-13----17--13-15-17--13-15-17-----15-13-12--15-13-12----15--12-13-15--12-13------|
|---------15---------15----15--------15---------------------13--------13----13--------13-----------|
|--------------------------------------------------------------------------------------------------|
|--------------------------------------------------------------------------------------------------|
|--------------------------------------------------------------------------------------------------|
|--------------------------------------------------------------------------------------------------|

|-13-11-10---13-11-10-----13--10-11--13--10-11---10-12-13-15-13-12--12-13-12--13-15-13-12-10~~-----|
|---------11---------11-----11---------11-------------------------13--------13---------------------|
|--------------------------------------------------------------------------------------------------|
|--------------------------------------------------------------------------------------------------|
|--------------------------------------------------------------------------------------------------|
|--------------------------------------------------------------------------------------------------|

Extended Chorus/Outro

Guitar 1

|-13-12-15-13-17-15-18-15-13-12--------------|
|------------------------------13-12---------|
|-----------------------------------13-9b~~--|
|--------------------------------------------|
|--------------------------------------------|
|--------------------------------------------|
Tap to rate this tab
# A B C D E F G H I J K L M N O P Q R S T U V W X Y Z