Song name
# A B C D E F G H I J K L M N O P Q R S T U V W X Y Z

Misc Unsigned Bands - Mannequin Heretic - Emily And The End Of The World tab

-------------------------------------------------------|
-------------------------------------------------------|
-------------------------------------------------------|
-------------------------------------------------------|  Intro/chorus
-11-11-9-7-----11-11-9-11-9---11-11-9-11---11-11-9-7-7-|
-9--9--7-5-----9--9--7-9--7---9--9--7-9----9--9--7-5-9-|

-------------------------------------------------------|
-------------------------------------------------------|
-------------------------------------------------------|
-------------------------------------------------------|  Verse
-------------------------------------------------------|
-9-9-7-5-xxxxxxx-9-9-7-9-7-xxxxx-9-9-7-10---9-9-7-5-7--|

-------------------------------------------------------|
-12b--13h12h13h12h-------------------------------------|
-------------------12-11-11bh-10bhg/3/4--5h4h5h-6------|    solo
-------------------------------------------------------|
-------------------------------------------------------|
-------------------------------------------------------|

-------------------10-10-11-12---14b-------------------|
----------------9--------------------------------------|
-6h5h6h5h6h-7--8---------------------------------------|   solo
-------------------------------------------------------|
-------------------------------------------------------|
-------------------------------------------------------|

Thats a first tab from Mannequin Heretic, please enjoy.
Tap to rate this tab
 
# A B C D E F G H I J K L M N O P Q R S T U V W X Y Z