Song name
# A B C D E F G H I J K L M N O P Q R S T U V W X Y Z

Misc Unsigned Bands - Checkerd Stripes - Eyeliner And Hair Dye Punk tab

Song:Eyeliner and hair dye
Band: Checkered Stripes


Intro
e----------------------------------------------------|
b----------------------------------------------------|
g----------------------------------------------------|
d----------------------------------------------------|   x4
a-3-3-3-3-3-3----------------------------------------|
e-------------3-3-3-3-3-3-5-5-5-5-5-5-1-1-1-1-1-1----|


Chorus
e----------------------------------------------------|
b----------------------------------------------------|
g-5-5-5-5-5-5----------------------------------------|
d-5-5-5-5-5-5--5-5-5-5-5-5-5-7-7-7-7-7-7-3-3-3-3-3-3-|
a-3-3-3-3-3-3--5-5-5-5-5-5-5-7-7-7-7-7-7-3-3-3-3-3-3-|
e--------------3-3-3-3-3-3-3-5-5-5-5-5-5-1-1-1-1-1-1-|

verse
e---------------------|
b---------------------|
g-5-5-----------------|
d-5-5-5-5-7-7-3-3-3-3-|
a-3-3-5-5-7-7-3-3-3-3-|
e-----3-3-5-5-1-1-1-1-|


order
intro
chorus
verse
chorus
outro (intro)
Tap to rate this tab
# A B C D E F G H I J K L M N O P Q R S T U V W X Y Z