Song name
# A B C D E F G H I J K L M N O P Q R S T U V W X Y Z

Misc Unsigned Bands - Heavens Bruses - Fallen Like An Angel tab

x=mute
Tunning: starndard EADGBe
I hope you like it. its perfect no mistakes at all i garantee that.

INTRO:

e---------------------------------------------------------------------------|
B-------1------1--------------1-----1-----------1----1---------0-----0------|
G---2------2-----2-------2------2-----2-----0-----0----0----0----0-----0----|
D-----2-------2----2---3---3------3-----3-----2-----2----2---0-----0-----0--|
A-0----------------------------------------3---------------2----------------|
E---------------------------------------------------------------------------|

VERSE:

e----------------------------------------------------------------------------|
B----------------------------------------------------------------------------|
G---------------------xx-55555555--------------------------------------------|
D-77777777-xx-33333333-xx-55555555-xx-55555555----5555555555555555555--------|
A-77777777-xx-33333333-xx-33333333-xx-55555555----5555555555555555555--------|
E-55555555-xx-11111111-xx----------xx-33333333----3333333333333333333--------|

CHORUS:

Listen to the song to get the strum pattern
e-0--0--0--0--0------------------------------|
B-1--1--3--1--0------------------------------|
G-2--2--2--0--0------------------------------|
D-2--3--3--2--0------------------------------|
A-0--0--0--3--2------------------------------|
E-x--x--x--x--3------------------------------|


FILL-IN:
e-----------------------------------------------------------------------------|
B-----------------------------------------------------------------------------|
G---2-----2----2---2-----2---2---2----2----0----0----0----0---0---0----0---2--|
D-----2-----2---2-----3----3---3---3---------2----2----2-------0----0---0-----|
A-0-----0-----0---0---------0---0----0----3----3----3----3---2---2----2--2----|
E-----------------------------------------------------------------------------|

start strmumming
e--0
B--0
G--0
D--0
A--2
E--3

The order of the song is:

intro=  x2
verse=  x2
chorus= x2
verse=  x2
chorus= x2
fillin= x2
chorus= x5
Tap to rate this tab
# A B C D E F G H I J K L M N O P Q R S T U V W X Y Z