Song name
# A B C D E F G H I J K L M N O P Q R S T U V W X Y Z

Misc Unsigned Bands - Pierced - Not Forsaken tab

-----------------------------------------------------------------------------
			     NOT FORSAKEN - PIERCED
-----------------------------------------------------------------------------
Tabbed by:
Email:

Tuning: DROP D

INTRO:
e-----------------------12--|
B---------------------------|
G-66p66p222266p66p----------|
D-4--4--22224--4--222222----|
A-4--4--22224--4--222222----|
D-4--4--22224--4--222222----|
                   pm pm

VERSE:
e------7+----7+----7+----7----|
B-----------------------------|
G-88999-88998-66776-66776-----|  2x
D-66666-66666-44444-44444-----|
A-66666-66666-44444-44444-----|
D-66666-66666-44444-44444-----|

CHORUS:
e----------------7--|
B----------------7--|
G-------------------| 2x
D-2222/4/55555555-
A-2222/4/55555555-
D-2222/4/55555555-
   PM         PM.

(REAPEAT VERSE)

BRIDGE:
e-------------|
B-------------|
G-------------|   2x
D-6x66x64x44x4
A-6x66x64x44x4
D-6x66x64x44x4

BE BACK WITH MORE LATER...ROCK ON!!

| /  slide up
| \  slide down
| h  hammer-on
| p  pull-off
| ~  vibrato
| +  harmonic
| x  Mute note
===============================================================================
Tap to rate this tab
 
# A B C D E F G H I J K L M N O P Q R S T U V W X Y Z