Song name
# A B C D E F G H I J K L M N O P Q R S T U V W X Y Z

Misc Unsigned Bands - Junjerias Farm - Smoother tab

another great song

junjerias farm-smoother


x=palm mute

intro and verse
E------------------------------------------------------------------------|
B------------------------------------------------------------------------|
G------------------------------------------------------------------------|
D-5-555555-7-777777-4-444444-5~-xx--5-555555-7-777777-4-444444-5~--------|
A-5-555555-7-777777-4-444444-5~-xx--5-555555-7-777777-4-444444-5~--------|
E-3-333333-5-555555-2-222222-3~-xx--3-333333-5-555555-2-222222-3~--------|
    xxxxxx   xxxxxx   xxxxxx          xxxxxx   xxxxxx   xxxxxx


pre-chorus
E------------------------------------------------------------------|
B------------------------------------------------------------------|
G------------------------------------------------------------------|
D------------------------------------------------------------------|
A-7-x-5-x-4~-----444-555-7~----------------------------------------|
E-5-x-3-x-2~-----222-333-5~----------------------------------------|
                 xxx xxx


chorus
E-------------------------------------------------------|
B-------------------------------------------------------|
G-------77777------------------77777--------------------|
D-77777-77777-55555-4~---77777-77777-55555-2~-----------|
A-77777-55555-55555-4~---77777-55555-55555-2~-----------|
E-55555-------33333-2~---55555-------33333-0~-----------|

same verse
same pre-chorus
same chorus

-on the bridge and the solo you start by playing the bridge 4 times, and then on the 
of the 5th, u bring in the solo.

bridge-10x
E---------------------------------------------|
B---------------------------------------------|
G---------------------------------------------|
D-7777777-4---7777777-4-----------------------|
A-5555555-2-4-5555555-2-4---------------------|
E-----------2-----------2---------------------|


solo-
E-------------------9-9b-10-10-10/13-----------12~----------|
B-10-8-10-8/7--8-10-----------------------11-11-------------|
G-------------6---------------------8h/10-11-11-------------|
D-----------------------------------------------------------|
A-----------------------------------------------------------|
E-----------------------------------------------------------|

then play the chorus twice, and its done
Tap to rate this tab
# A B C D E F G H I J K L M N O P Q R S T U V W X Y Z