Song name
# A B C D E F G H I J K L M N O P Q R S T U V W X Y Z

Misc Unsigned Bands - Purple Soldier - Battlefield tab

E|--------------------------------------------------------------------|
B|--------------------------------------------------------------------|
G|--------------------------------------------------------------------|
D|--------------------------------------------------------------------|
A|16-16-16-16-14-14-14-14-11-11-11-11-14-14-14-14-9-9-9-9-11-11-11-11-|
E|14-14-14-14-12-12-12-12--9--9--9--9-12-12-12-12-7-7-7-7--9--9--9--9-|


 |--------------------------------------------------------------------|
 |--------------------------------------------------------------------|
 |--------------------------------------------------------------------|
 |--------------------------------------------------------------------|
 |11-11-11-11-14-11-14-16-16-16-16-14-14-14-14-11-11-11-11-14-14-14-14|
 | 9--9--9--9-12--9-12-14-14-14-14-12-12-12-12--9--9--9--9-12-12-12-12|

 
 |-------------------------------------------------------------------|
 |-------------------------------------------------------------------|
 |-------------------------------------------------------------------|
 |-------------------------------------------------------------------|
 |9-9-9-9-7-7-7-7-7-9-11-14-16---------------------------------------|
 |7-7-7-7-5-5-5-5-5-7--9-12-14---------------------------------------|X3


 |-------------------------------------------------------------------|
 |-------------------------------------------------------------------|
 |-------------------------------------------------------------------|
 |-------------------------------------------------------------------|
 |14/4---------------------------------------------------------------|
 |12/2---------------------------------------------------------------|





            the first 3 lines are all 1 part
Tap to rate this tab
# A B C D E F G H I J K L M N O P Q R S T U V W X Y Z