Song name
# A B C D E F G H I J K L M N O P Q R S T U V W X Y Z

Misc Unsigned Bands - A Hanging Mans Symphony - Crumbles Into Noise tab

             Crumbles Into Noise                                


           A Hanging Man's Symphony



Intro


      S S S S S S S S S S S S S S S S  3x  Q    E  S S Q    E  S S  
E||---7-7-7-7-7-7-7-7-7-7-x-7-x-7-x-7--||--------------------------|
B||---9-9-9-9-9-9-9-9-9-7-x-7-x-7-x-7--||--------------------------|
G||*--9-9-9-9-9-9-9-9-9-8-x-8-x-8-x-8-*||--------------------------|
D||*--------------------9---9---9---9-*||--5----5--5-5-2----2--2-2-|
A||------------------------------------||--5----5--5-5-2----2--2-2-|
E||------------------------------------||--3----3--3-3-0----0--0-0-|


    S S S S S S S S S S S S S S S S  3x  Q    E  S S Q    Q     
|---7-7-7-7-7-7-7-7-7-7-x-7-x-7-x-7--||------------------------|
|---9-9-9-9-9-9-9-9-9-7-x-7-x-7-x-7--||------------------------|
|*--9-9-9-9-9-9-9-9-9-8-x-8-x-8-x-8-*||-------------------3----|
|*--------------------9---9---9---9-*||--5----5--5-5-2----3----|
|------------------------------------||--5----5--5-5-2----1----|
|------------------------------------||--3----3--3-3-0---------|


Verse 1

    S S S S S S S S S S S S E  S S  3x  S S S S S S S S S S S S E  E   
|-----------------------------------||--------------------------------|
|-----------------------------------||--------------------------------|
|*---------------------------------*||--------------------------------|
|*---------------------------------*||--------------------------2--2--|
|---4-1---------------------1-------||--4-1---------------------2--2--|
|---------0---0---0---0---0----0----||--------0---0---0---0---0-0--0--|


    S S S S S S S S S S S S E  S S  3x  S S S S S S S S E  E  E  E   
|-----------------------------------||------------------------------|
|-----------------------------------||------------------------------|
|*---------------------------------*||------------------------------|
|*---------------------------------*||---------------------------5--|
|---4-1---------------------1-------||--4-1-------------------4-----|
|---------0---0---0---0---0----0----||--------0---0---0----3--------|


Chorus


    Q    S S Q    E  E  E     Q    E  Q    S S E  E     Q    S S Q    E  E  E   
|--------------------------|-------------------------|-------------------------|
|--------------------------|-------------------------|-------------------------|
|*-------------------------|-------------------------|-------------------------|
|*-------5-4-5----------2--|---------------4-5-4--2--|-------5-4-5----------2--|
|-----------------2--5-----|-------2--0--------------|----------------2--5-----|
|---0----------------------|--3----------------------|--0----------------------|


  Q    E  Q    S S E  E       Q    Q    Q    Q     
--------------------------||----------------------|
--------------------------||----------------------|
-------------------------*||----------------------|
---------------4-5-4--2--*||----------------------|
-------2--0---------------||--4----1--------------|
--3-----------------------||------------3----0----|

Verse 2


    E  S S S S S E  S S S E  E     E  S S S S S E  S S S E  E     
|-------------------------------|-------------------------------||
|-------------------------------|-------------------------------||
|*------------------------------|------------------------------*||
|*--2---------------------5-----|--2---------------------------*||
|----------------4--------------|---------------1---------------||
|------0---0---0----0---0----0--|-----0---0---0----0---0-3--0---||


   E  S S S S S E  S S S E  E     E  S S S S S E  S S S E  E     
-------------------------------|-------------------------------||
-------------------------------|-------------------------------||
*------------------------------|------------------------------*||
*--2---------------------5-----|--2---------------------------*||
----------------4--------------|---------------1---------------||
------0---0---0----0---0----0--|-----0---0---0----0---0-3--0---||

Other Guitar plays this on 3rd and 4th times:

    S S S S S S S S  S  S  S  S S  S S  S  
|---7-7-7-7-x-7-x-7-10-10-10-10-x-10-x-10-|
|---9-9-9-9-x-9-x-9-12-12-12-12-x-12-x-12-|
|*--9-9-9-9-x-9-x-9-12-12-12-12-x-12-x-12-|
|*----------------------------------------|
|-----------------------------------------|
|-----------------------------------------|


   S  S  S  S S  S S  S  S  S  S  S S  S S  S              
--10-10-10-10-x-10-x-10-13-13-13-13-x-13-x-13--|
--11-11-11-11-x-11-x-11-14-14-14-14-x-14-x-14--|
--10-10-10-10-x-10-x-10-13-13-13-13-x-13-x-13-*|
----------------------------------------------*|
-----------------------------------------------|
-----------------------------------------------|

Then back to this:


  S S S S S S S S S S S S E  S S    S S S S S S S S S S E  Q     
---------------------------------|------------------------------|
---------------------------------|------------------------------|
---------------------------------|------------------------------|
---------------------------------|------------------------------|
--4-1---------------------1------|--4-1-------------------------|
--------0---0---0---0---0----0---|--------0---0---0-0-----------|


Chorus


    Q    S S Q    E  E  E     Q    E  Q    S S E  E     Q    S S Q    E  E  E   
|--------------------------|-------------------------|-------------------------|
|--------------------------|-------------------------|-------------------------|
|*-------------------------|-------------------------|-------------------------|
|*-------5-4-5----------2--|---------------4-5-4--2--|-------5-4-5----------2--|
|-----------------2--5-----|-------2--0--------------|----------------2--5-----|
|---0----------------------|--3----------------------|--0----------------------|


  Q    E  Q    S S E  E                                                       
--------------------------|
--------------------------|
-------------------------*|
---------------4-5-4--2--*|
-------2--0---------------|
--3-----------------------|

Break:


   S S S S S S S S S S S S S S S S  
|----------------------------------|
|----------------------------------|
|----------------------------------|
|----------------------------------|
|----------------------------------|
|--0---0---0---0-0---0---0-0---0---|


  S S S S S S S S S S S S S S S S    S S S S S S S S S S S S S S S S  
----------------------------------|----------------------------------|
----------------------------------|----------------------------------|
----------------------------------|----------------------------------|
----------------------------------|----------5-----------------------|
----------------------------------|----------------------------------|
--0---0---0---0-0---0---0-0---0---|--0---3-------0-0---0---0-0---0---|


  S S S S S S S S S S S S S S S S    S S S S S S S S S S S S S S S S  
----------------------------------|----------------------------------|
----------------------------------|----------------------------------|
----------------------------------|----------------------------------|
----------------------------------|----------------------------------|
----------1-----------------------|----------4-----------------------|
--0---3-------0-0---0---0-0---0---|--0---3-------0-0---0---0-0---0---|


  S S S S S S S S S S S S S S S S      E  E  E  S E  E  S E  E   
----------------------------------||----------------------------|
----------------------------------||----------------------------|
----------------------------------||*---------------------------|
----------2-----------------------||*--------5------------------|
----------------------------------||----------------------------|
--0---3-------0-0---0---0-0---0---||---0--3-----3-3--3--3-3--3--|


  E  E  E  S E  E  S E  E     E  E  E  S E  E  S E  E   
---------------------------|---------------------------|
---------------------------|---------------------------|
---------------------------|---------------------------|
---------------------------|---------------------------|
--------1------------------|--------4------------------|
--0--3-----3-3--3--3-3--3--|--0--3-----3-3--3--3-3--3--|


  E  E  E  S E  E  S E  E       E  E  E  E  E  E  E  E                 
----------------------------||--------------------------|
----------------------------||--------------------------|
---------------------------*||--------------------------|
--------2------------------*||--------2--2--2--2--2--2--|
----------------------------||--------------------------|
--0--3-----3-3--3--3-3--3---||--0--3--3--3--3--3--3--3--|


Solo (other guitar plays chorus underneath)


   W     
|--12-----------------|
|--15b----------------|
|---------------------|
|---------------------|
|---------------------|
|---------------------|


   S  S  S  S  S  S  S  S  S  S  S  S  Q     
--15-12----12-------------------------------|
--------15----15-12----12-------------------|
--------------------14----14-12-------------|
--------------------------------14-12-14----|
--------------------------------------------|
--------------------------------------------|


   S  S  S  S  S  S  S  S  S  S  S  S  E   E   
--------------------------------------12------|
--------------------12-------15-----------15--|
--12-------14---------------------------------|
-----14-14----14-14----14-14----14-14---------|
----------------------------------------------|
----------------------------------------------|


   S  S  S  S  S S  S S  H         
--17-15----15---------------------|
--------17----17---15---17--------|
----------------------------------|
----------------------------------|
----------------------------------|
----------------------------------|


   S  S  S S  S  S  S S  S S  S  S S  S  S S     H         S S  S  S Q     
---------------------------------------------|----------------------------|
---------------------------------------------|------------12-x-12-12-L----|
--14-12--------------------------------------|------------12-x-12-12-L----|
--------14---12-14-14------------------------|------------12-x-12-12-L----|
------------------------12---13-14---13-12---|----------------------------|
---------------------------------------------|--15------------------------|


   S  S  S  S  S  S  S  S S S  S S  S S S S  
--19-17-15----17-15----15-L-L-15-L-15-L-L-L-|
-----------17-------17----------------------|
--------------------------------------------|
--------------------------------------------|
--------------------------------------------|
--------------------------------------------|


   S  S  S  S  S  S  S  S S S  S S  S S S S  
--17-15-12----------------------------------|
-----------15-12--------------12-L-12-L-L-L-|
-----------------14-12-14-L-L---------------|
--------------------------------------------|
--------------------------------------------|
--------------------------------------------|


   S  S  S  S  S  S  S  S  S  S  S  S  Q     
--------12-15-------15-17-------17-19-19----|
--12-15-------15-17-------17-20-------------|
--------------------------------------------|
--------------------------------------------|
--------------------------------------------|
--------------------------------------------|


   S  S  S  S  S S  S S  S  S  S  S S S  S S               
--15-12----12--------------------------------|
--------15----15---12------------------------|
------------------------14-12----12-L-L------|
------------------------------14--------14-L-|
---------------------------------------------|
---------------------------------------------|


Ska bit


    S S S S S S S S S S S S S S S S  
|---7-7-7-7-7---7-x-7-7-x-7-x-7-x-7-|
|---9-9-9-9-9---9-x-9-9-x-9-x-9-x-9-|
|*--9-9-9-9-9---9-x-9-9-x-9-x-9-x-9-|
|*----------------------------------|
|-----------------------------------|
|-----------------------------------|


  S S S S S S S S S S S S S S S S    S S S S S S S S S S S S S S S S  
--5-5-5-5-5---5-x-5-5-x-5-x-5-x-5-|--3-3-3-3-3---3-x-3-3-x-3-x-3-x-3-|
--7-7-7-7-7---7-x-7-7-x-7-x-7-x-7-|--5-5-5-5-5---5-x-5-5-x-5-x-5-x-5-|
--7-7-7-7-7---7-x-7-7-x-7-x-7-x-7-|--5-5-5-5-5---5-x-5-5-x-5-x-5-x-5-|
----------------------------------|----------------------------------|
----------------------------------|----------------------------------|
----------------------------------|----------------------------------|


  S S S S S S S S S S S S S S S S      S S S S S S S S S S S S S S S S  
--1-1-1-1-1---1-x-1-1-x-1-x-1-x-1--||--1-1-1-1-1---1-x-1-1-x-1-x-1-x-1-|
--3-3-3-3-3---3-x-3-3-x-3-x-3-x-3--||--3-3-3-3-3---3-x-3-3-x-3-x-3-x-3-|
--3-3-3-3-3---3-x-3-3-x-3-x-3-x-3-*||--3-3-3-3-3---3-x-3-3-x-3-x-3-x-3-|
----------------------------------*||----------------------------------|
-----------------------------------||----------------------------------|
-----------------------------------||----------------------------------|


  S S S S S S S S S S S S S S S S    W                 
--1-1-1-1-1---1-x-1-1-x-1-x-1-x-1-|--1----------------|
--3-3-3-3-3---3-x-3-3-x-3-x-3-x-3-|--3----------------|
--3-3-3-3-3---3-x-3-3-x-3-x-3-x-3-|--3----------------|
----------------------------------|-------------------|
----------------------------------|-------------------|
----------------------------------|-------------------|

Ending


    E  S S S S S E  S S S S S E     E  S S S S S E  S S S S S S S  4x
|--------------------------------|---------------------------------||
|--------------------------------|---------------------------------||
|*-------------------------------|--------------------------------*||
|*---------2-0--------7-0-5-0-4--|---------2-0--------------------*||
|--------------------------------|-------------1-4--4-4-4-4-4-4-4--||
|---0--3-0-----3-5--0------------|--0--3-0-------------------------||


      PM PM                              PM PM           PM PM           
   E  S  S  S S E  E   S  S S S E     E  S  S  S S E  E  S  S  S S E   4x
-----------------------------------|-----------------------------------||
----------------------10-10-8-8-7--|-----------------------------------||
*----------------------------------|---------------------------3-6-6--*||
*--2--------5-2----2---7--7-5-5-4--|--2--------5-2----2--------3-6-6--*||
---2--------5-2----2---------------|--2--------5-2----2--------1-4-4---||
---0--0--0--3-0----0---------------|--0--0--0--3-0----0--0--0----------||


  W                   W                  
-------------------|-------------------||
-------------------|-------------------||
-------------------|-------------------||
--2----------------|--L----------------||
--2----------------|--L----------------||
--0----------------|--L----------------||
Tap to rate this tab
# A B C D E F G H I J K L M N O P Q R S T U V W X Y Z