Song name
# A B C D E F G H I J K L M N O P Q R S T U V W X Y Z

Misc Unsigned Bands - The Villanova Junction - Lousy Host tab

SONG: LOUSY HOST
ARTIST: THE VILLANOVA JUNCTION
ALBUM: SLOW MOTION FIST FIGHT EP
RECORDED BY TIM LYNCH AT THE RECORDING COMPANY, SCHENECTADY NY
ALL RIGHTS RESERVED, UNAUTHORIZED DUPLICATION IS A VIOLATION OF APPLICABLE LAWS.
COPYRIGHT 2006 BY THE VILLANOVA JUNCTION
TABBED BY: MATT WILLIS

LEGEND:
h = Hammer on
p = Pull off
b = Bend
r = Release
pb= Prebend
<>= Pinch/Artificial Harmonic
v = Vibrato
x = Rest/Mute strings
X = Full rest/Mute strings
/ = Slide up
\ = Slide Down
~ = Let note ring
[]= Grouped notes, see above staff for details

***Ben's solo not tabbed. This is the EP version, if you want the live version let me know.


INTRO:

|--------4--------|--------4--------|--------4--------|-4-7b8-----------||
|-1/4-6----h6p4h6-|-1/4-6----h6p4h6-|-1/4-6----h6p4h6-|---------6p4h6---||
|-----------------|-----------------|-----------------|----------------.||
|-----------------|-----------------|-----------------|----------------.|| x4
|-----------------|-----------------|-----------------|-----------------||
|-----------------|-----------------|-----------------|-----------------||


|-----------------|-----------------|-----------------|-----------------||
|-----------------|-----------------|-----------------|-----------------||
|-----1-----3b4p1-|-----1-----------|-----1-----3b4p1-|-----1----------.||
|-1h3---1h3-------|-1-3---h3-3--X---|-1h3---1h3-------|-1-3---h3-3--X--.|| x2
|-----------------|-----------------|-----------------|-----------------||
|-----------------|-----------------|-----------------|-----------------||

VERSE ONE:

|-----------------|-----------------|-----------------|-----------------||
|-----------------|-----------------|-----------------|-----------------||
|-----1-----------|-----1-----------|-----1-----------|-----1-----4b5r--||
|-1h3---1-3--1-3--|-1h3---1h3--X--3-|-1h3---1-3--1-3--|-1h3---1h3-----1-||
|-----------------|-----------------|-----------------|-----------------||
|-----------------|-----------------|-----------------|-----------------||


|-----------------|-----------------|-----------------|-----------------||
|-----------------|-----------------|-----------------|-----------------||
|-----------------|--------X--------|--------X--------|--------X--------||
|-3v~-------------|-----------------|-----------------|-----------------||
|-----------------|-----------------|-----------------|-----------------||
|-----------------|-----------------|-----------------|------------13\2-||

CHORUS:

|--------4--------|--------4--------|--------4--------|-4-7b8-----------||
|-1/4-6----h6p4h6-|-1/4-6----h6p4h6-|-1/4-6----h6p4h6-|---------6p4h6---||
|-----------------|-----------------|-----------------|----------------.||
|-----------------|-----------------|-----------------|----------------.|| x4
|-----------------|-----------------|-----------------|-----------------||
|-----------------|-----------------|-----------------|-----------------||


|-----------------|-----------------|-----------------|-----------------||
|-----------------|-----------------|-----------------|-----------------||
|-----1-----3b4p1-|-----1-----------|-----1-----3b4p1-|-----1----------.||
|-1h3---1h3-------|-1-3---h3-3--X---|-1h3---1h3-------|-1-3---h3-3--X--.|| x2
|-----------------|-----------------|-----------------|-----------------||
|-----------------|-----------------|-----------------|-----------------||

VERSE TWO:

|-----------------|-----------------|-----------------|-----------------||
|-----------------|-----------------|-----------------|-----------------||
|-----1-----------|-----1-----------|-----1-----------|-----1-----4b5r--||
|-1h3---1-3--1-3--|-1h3---1h3--X--3-|-1h3---1-3--1-3--|-1h3---1h3-----1-||
|-----------------|-----------------|-----------------|-----------------||
|-----------------|-----------------|-----------------|-----------------||


|-----------------|-----------------|-----------------|-----------------||
|-----------------|-----------------|-----------------|-----------------||
|-----------------|--------X--------|-----1-----------|--------X--------||
|-3v~-------------|-----------------|-1h3---1--3~-----|-----------------||
|-----------------|-----------------|-----------------|-----------------||
|-----------------|-----------------|-----------------|------------13\2-||

CHORUS:

|--------4--------|--------4--------|--------4--------|-4-7b8-----------||
|-1/4-6----h6p4h6-|-1/4-6----h6p4h6-|-1/4-6----h6p4h6-|---------6p4h6---||
|-----------------|-----------------|-----------------|----------------.||
|-----------------|-----------------|-----------------|----------------.|| x4
|-----------------|-----------------|-----------------|-----------------||
|-----------------|-----------------|-----------------|-----------------||



BEN:
|-----------------|-----------------|-----------------|-----------------||
|-----------------|-----------------|-----------------|-----------------||
|---------3b4r3---|-----------------|-----------------|-----------------||
|---------------3-|-----------------|-----------------|-----------------||
|-----------------|-----------------|-----------------|-----------------||
|-----------------|-----------------|-----------------|-----------------||

FRANK:
|-----------------|-----------------|-----------------|-----------------||
|-----------------|-----------------|-----------------|-----------------||
|-----------------|-----------------|-----------------|-----------------||
|-6-6-3-----------|-6-6-3-----------|-6-6-3--------3--|-6-6-3-----------||
|-6-6-3-----------|-6-6-3-----------|-6-6-3-----------|-6-6-3-----------||
|-4-4-1-----------|-4-4-1-----------|-4-4-1---0h1-----|-4-4-1-----------||


BEN: x4
|----------[8h11]-|-----------------|-----------------|-----------------||
|-----------------|-----------------|-----------------|-----------------||
|-----------------|-----------------|-----------------|-----------------||
|-----------------|-----------------|-----------------|-----------------||
|-----------------|-----------------|-----------------|-----------------||
|-----------------|-----------------|-----------------|-----------------||

FRANK:
|-----------------|-----------------|-----------------|-----------------||
|-----------------|-----------------|-----------------|-----------------||
|-----------------|-----------------|-----------------|-----------------||
|-6-6-3-----------|-6-6-3-----------|-6-6-3-------3b4-|-6-6-3-----------||
|-6-6-3-----------|-6-6-3-----------|-6-6-3-----------|-6-6-3-----------||
|-4-4-1-----------|-4-4-1-----------|-4-4-1---0h1-----|-4-4-1-----------||


BEN:
|------18b19r18---|-----------------|-----------------|-----------------||
|--------------18-|-----------------|-----------------|-----------------||
|-----------------|-----------------|-----------------|-----------------||
|-----------------|-----------------|-----------------|-----------------||
|-----------------|-----------------|-----------------|-----------------||
|-----------------|-----------------|-----------------|-----------------||

FRANK:
|-----------------|-----------------|-----------------|-----------------||
|-----------------|-----------------|-----------------|-----------------||
|-----------------|-----------------|-----------------|-----------------||
|-6-6-3-----------|-6-6-3-----------|-6-6-3--------3--|-6-6-3-----------||
|-6-6-3-----------|-6-6-3-----------|-6-6-3-----------|-6-6-3-----------||
|-4-4-1-----------|-4-4-1-----------|-4-4-1---0h1-----|-4-4-1-----------||



BOTH:
|-----------------|-----------------|-----------------|-----------------||
|-----------------|-----------------|-----------------|-----------------||
|-----------------|-----------------|-----------------|-----------------||
|-6-6-3-----------|-6-6-3-----------|-6-6-3-----------|-6-6-3~----------||
|-6-6-3-----------|-6-6-3-----------|-6-6-3-----------|-6-6-3~----------||
|-4-4-1-----------|-4-4-1-----------|-4-4-1-----------|-4-4-1~----------||



CHORUS:

|--------4--------|--------4--------|--------4--------|-4-7b8-----------||
|-1/4-6----h6p4h6-|-1/4-6----h6p4h6-|-1/4-6----h6p4h6-|---------6p4h6---||
|-----------------|-----------------|-----------------|----------------.||
|-----------------|-----------------|-----------------|----------------.|| x4
|-----------------|-----------------|-----------------|-----------------||
|-----------------|-----------------|-----------------|-----------------||


|-----------------|-----------------|-----------------|-----------------||
|-----------------|-----------------|-----------------|-----------------||
|-----1-----3b4p1-|-----1-----------|-----1-----3b4p1-|-----1----------.||
|-1h3---1h3-------|-1-3---h3-3--X---|-1h3---1h3-------|-1-3---h3-3--X--.|| x2
|-----------------|-----------------|-----------------|-----------------||
|-----------------|-----------------|-----------------|-----------------||
Tap to rate this tab
# A B C D E F G H I J K L M N O P Q R S T U V W X Y Z