Guitaretab - guitar tabs
Song name
# A B C D E F G H I J K L M N O P Q R S T U V W X Y Z

Misc Unsigned Bands - Gauze - Alex tab

E|---------------------------------------1-3h43-1-1-4----------------------0-|
B|-----------------------------------------------2---3p1-5p0-----------------|
G|---------9h10/12--12-12-7h9--5h7-0-2-----------------------9-10/12-0-------|
D|--0h3--7-------------------7--------7~----------------------------\7-9h109-|
A|-0-------------------------------------------------------------------------|
E|-0-------------------------------------------------------------------------|
[ Tab from: http://www.guitaretab.com/m/misc-unsigned-bands/79589.html ]
E|-------------------------------------------1-----|
B|-------------------------------------------1-----|
G|------------------------------------------2--0h2-|
D|-----------------7h9/14-14p12-7h8-5-3-2h3------3-|
A|--3/5---9h10-7-0---------------------------------|
E|0---0----------0-------7-------------------------|

E|------------------------------7-15p13-12----7/9--|
B|---------------------------------------10-12-----|
G|------------8------------------------------------|
D|----------77-9-12-13---10/5/7--------------------|
A|--0h2/10-------------15--------------------------|
E|-2--------------------------0--------------------|


Related for Gauze - Alex tab