Song name
# A B C D E F G H I J K L M N O P Q R S T U V W X Y Z

Misc Unsigned Bands - Fifty Caliber Ethics - 12 Oclock To Anaheim tab

SONG: 12 O'CLOCK TO ANAHEIM
ARTIST: FIFTY CALIBER ETHICS
TABBED BY: MATT WILLIS

LEGEND:
h = Hammer on
p = Pull off
b = Bend
r = Release
pb= Prebend
<>= Pinch/Artificial Harmonic
v = Vibrato
x = Rest/Mute strings
X = Full rest/Mute strings
/ = Slide up
\ = Slide Down
~ = Let note ring
[]= Grouped notes, see above staff for details

Notes: This song is rarely played the same exact way twice. In order to get the right 
for the variations in volume you should fingerpick, then flick your index finger over the strings.


INTRO:

e|------------------------------------------0-1-0---------1-----0-0------------------------------|
B|--1-------3-----------------1h3p1----3----------1-------1-1---1---1---3----1--------0-----0h1~-|
G|--0-0-------0---2-2---2-2---2-----2---0-----------2-----2---2-------0--0-----2----2---2---2----|
D|------2-------0-----2-2--2--------------0-----------2---3-------------------------2-----2-2----|
A|--3-----3-2-----------0---0-0-0----2-2----3-----0-----0-3-----3-------2----0---0--0-------0----|
E|----------------1---------------------------------------1----------------3---1---1-------------|

VERSE:

e|------------------------------------------0-1-0---------1-1-1--------------------------------------|
B|--1-------3-----------------0h1------3----------1-------1-1-1-1-1---3-----1----------------1-1-0-1-|
G|----0-------0---2-2---2-2---2---2------0----------2-----2-2-2-2---0----0----0-0-2-2--2-2---2-2-2-2-|
D|------2-------0----0--2--2-------2------0-----------2---3-3-3-0---------0----0-----2-2--2--2-2-2-2-|
A|--3-------2---------0-0---0-0-0------2----3-----0-----0-3-3-3-3-----2-----0----------0---0-0-0-0-0-|
E|----------------1---------------------------------------1-1-1-------------------1------------------|

BRIDGE:

e|---------------------------------------------------------------|
B|-0h1-1---0h1-1---0h1-1---0h1-1---0h1-1---0h1-1---0h1-1---0h1-1-|
G|-2---2---2---2---0---0---0---0---2---2---2---2---0---0---0---0-|
D|-2---2---2---2---2---2---2---2---2---2---2---2---2---2---2---2-|
A|-0---0---0---0---3---3---3---3---0---0---0---0---3---3---3---3-|
E|---------------------------------------------------------------|

VERSE:

e|------------------------------------------0-1-0---------1-1-1--------------------------------------|
B|--1-------3-----------------0h1------3----------1-------1-1-1-1-1---3-----1----------------1-1-0-1-|
G|----0-------0---2-2---2-2---2---2------0----------2-----2-2-2-2---0----0----0-0-2-2--2-2---2-2-2-2-|
D|------2-------0----0--2--2-------2------0-----------2---3-3-3-0---------0----0-----2-2--2--2-2-2-2-|
A|--3-------2---------0-0---0-0-0------2----3-----0-----0-3-3-3-3-----2-----0----------0---0-0-0-0-0-|
E|----------------1---------------------------------------1-1-1-------------------1------------------|

BRIDGE:

e|---------------------------------------------------------------|
B|-0h1-1---0h1-1---0h1-1---0h1-1---0h1-1---0h1-1---0h1-1---0h1-1-|
G|-2---2---2---2---0---0---0---0---2---2---2---2---0---0---0---0-|
D|-2---2---2---2---2---2---2---2---2---2---2---2---2---2---2---2-|
A|-0---0---0---0---3---3---3---3---0---0---0---0---3---3---3---3-|
E|---------------------------------------------------------------|

VERSE:

e|------------------------------------------0-1-0---------1-1-1------------------------------------|
B|--1-------3-----------------0h1------3----------1-------1-1-1-1-1---3-----1-------------------1~-|
G|----0-------0---2-2---2-2---2---2------0----------2-----2-2-2-2---0----0----0-0-2-2--2-2-----2~--|
D|------2-------0----0--2--2-------2------0-----------2---3-3-3-0---------0----0-----2-2--2---2~---|
A|--3-------2---------0-0---0-0-0------2----3-----0-----0-3-3-3-3-----2-----0----------0---0-0~----|
E|----------------1---------------------------------------1-1-1-------------------1----------------|

BRIDGE:

e|---------------------------------------------------------------|
B|-0h1-1---0h1-1---0h1-1---0h1-1---0h1-1---0h1-1---0h1-1---0h1-1-|
G|-2---2---2---2---0---0---0---0---2---2---2---2---0---0---0---0-|
D|-2---2---2---2---2---2---2---2---2---2---2---2---2---2---2---2-|
A|-0---0---0---0---3---3---3---3---0---0---0---0---3---3---3---3-|
E|---------------------------------------------------------------|

VERSE:

e|------------------------------------------0-1-0---------1-1-1--------------------------------------|
B|--1-------3-----------------0h1------3----------1-------1-1-1-1-1---3-----1----------------1-1-0-1-|
G|----0-------0---2-2---2-2---2---2------0----------2-----2-2-2-2---0----0----0-0-2-2--2-2---2-2-2-2-|
D|------2-------0----0--2--2-------2------0-----------2---3-3-3-0---------0----0-----2-2--2--2-2-2-2-|
A|--3-------2---------0-0---0-0-0------2----3-----0-----0-3-3-3-3-----2-----0----------0---0-0-0-0-0-|
E|----------------1---------------------------------------1-1-1-------------------1------------------|

VERSE:

e|------------------------------------------0-1-0---------1-1-1--------------------------------------|
B|--1-------3-----------------0h1------3----------1-------1-1-1-1-1---3-----1----------------1-1-0-1-|
G|----0-------0---2-2---2-2---2---2------0----------2-----2-2-2-2---0----0----0-0-2-2--2-2---2-2-2-2-|
D|------2-------0----0--2--2-------2------0-----------2---3-3-3-0---------0----0-----2-2--2--2-2-2-2-|
A|--3-------2---------0-0---0-0-0------2----3-----0-----0-3-3-3-3-----2-----0----------0---0-0-0-0-0-|
E|----------------1---------------------------------------1-1-1-------------------1------------------|

//END
Tap to rate this tab
# A B C D E F G H I J K L M N O P Q R S T U V W X Y Z