Song name
# A B C D E F G H I J K L M N O P Q R S T U V W X Y Z

Misc Unsigned Bands - Debello Castrum - The Ruins Of Necropolis tab

The Ruins Of Necropolis- Debello Castrum
Tuning Drop b

Intro Palm Muted Repeated many times
E|---------------------------------------------------------------------------|
B|----------------------------------------------------------4h3h4h3----------|
G|------------------------------------------------------------------4-2------|
D|0-1-0-1-0-0-0----------5-4-------0-1-0-1-0-0-0-5h4h5h4---------------------|
A|0-1-0-1-0-0-0----6-5-3-----6-5---0-1-0-1-0-0-0---------6-5-----------------|
E|0-1-0-1-0-0-0--0-----------------0-1-0-1-0-0-0-----------------------------|


Verse 1
e|----------------------------------------------------------------|
B|------------------------------------------------------2-3-------|
G|---------------------------------------------------1-2----------|
D|-----0-------0h1h0h1-----1-------1-0----1-3-0---0-1-------------|
A|-----0-1-0-3---------1-0-1-1-0-3----1-0-1-3-0-------------------|
E|12/1-0-------------------1--------------1-3-0-------------------|


Breakdown Guitar 1 PM

e|---------------------------------------------------------------|
B|---------------------------------------------------------------|
G|---------------------------------------------------------------|
D|0-0------------------------------------------------------------|
A|0-0------------------------------------------------------------|
E|0-0------------------------------------------------------------|


Well thats all i feel like tabbing for now theres more i can do but im lazy lol

most of the guitar parts are mixtures of guitar 1 and 2 there the most notable parts to me

ENJOY
Tap to rate this tab
# A B C D E F G H I J K L M N O P Q R S T U V W X Y Z