Song name
# A B C D E F G H I J K L M N O P Q R S T U V W X Y Z

Misc Unsigned Bands - Rising Of The Fallen - Taking Control tab

Intro
e-----------------------------------------------------------------------|
B-----------------------------------------------------------------------|
G-----------------------------------------------------------------------|
D-------------------------------------------------------------------13--|
A-------------------------------------------------------------------13--|
D-xxxxxxxxxxxxxxxx3xxxxxxxxxxxxxxx5xxxxxxxxxxxxxxxx7xxxxxxxxxxxxxxxx11--|

e-----------------------------------------------------------------------|
B-----------------------------------------------------------------------|
G-----------------------------------------------------------------------|
D-------------------------------------------------------------------13--|
A-----------------3---------------5----------------7----------------13--|
D-xxxxxxxxxxxxxxxx3xxxxxxxxxxxxxxx5xxxxxxxxxxxxxxxx7xxxxxxxxxxxxxxxx11--|

e-----------------------------------------------------------------------|
B-----------------------------------------------------------------------|
G-----------------------------------------------------------------------|
D-----------------3---------------5----------------7----------------13--|
A-----------------3---------------5----------------7----------------13--|
D-xxxxxxxxxxxxxxxx3xxxxxxxxxxxxxxx5xxxxxxxxxxxxxxxx7xxxxxxxxxxxxxxxx11--|
Tap to rate this tab
# A B C D E F G H I J K L M N O P Q R S T U V W X Y Z