Song name
# A B C D E F G H I J K L M N O P Q R S T U V W X Y Z

Misc Unsigned Bands - 7 Wednesdays - Unforgivable tab

intro
---------------------------------|
---------------------------------|
---------------------------------|
--3-3-3-3--5-5-5-5---------------|
--3-3-3-3--5-5-5-5---------------|
--1-1-1-1--3-3-3-3---------------|

----------------------------------------------------------------------|
----------------------------------------------------------------------|
--5-x-x-5-x-x-5-x-----------------------------------------------------| x2
--5-x-x-5-x-x-5-x--5-x-x-5-x-x-5-x--7-x-x-7-x-x-7-x--3-3-3-3--5-5-5-5-|
--3-x-x-3-x-x-3-x--5-x-x-5-x-x-5-x--7-x-x-7-x-x-7-x--3-3-3-3--5-5-5-5-|
-------------------3-x-x-3-x-x-3-x--5-x-x-5-x-x-5-x--1-1-1-1--3-3-3-3-|
Tap to rate this tab
 
# A B C D E F G H I J K L M N O P Q R S T U V W X Y Z