Song name
# A B C D E F G H I J K L M N O P Q R S T U V W X Y Z

Misc Unsigned Bands - Bullets Goes Better - Asd A Sinner Dying tab

Standart Tuning.
Palm Muted: (.)
Let Ring: (~)
Bending: (b)

Intro 1.
|----------------------------------------|
|----------------------------------------|
|----------------------------------------|
|--------9-----------------9-------------|
|-----10----------------10---------------|
|--12-------(x5)-12-11---------(x5)------| x2

Intro 2
|-----------------------------------------------------------------------|
|-----------------------------------------------------------------------|
|-----------------------------------------------------------------------|
|-----------------------------------------------------------------------|
|-----------2-----2-----5-----4-----4-------2-----2-----5-----4-----4---|
|--10\3-3-3---3-3---3-3---3-3---3-3---3-2-2---2-2---2-2---2-2---2-2---0-|

x2 second time no slide then inmediately continue with.

|-------------------------------------|
|-------------------------------------|
|-------------------------------------|
|-------------------------------------|
|-----4-----4-----7-----5-----5-------| All intro 2 twice with none slide  
|-5-5---5-5---5-5---5-5---5-5---0-----| after the first one.

Bridge To Verse1

|-------------------------------------------------|-----|
|-------------------------------------------------|     |
|-------------------------------------------------|     |
|-77-7777-77-77---99-99-9910-10-10-10-10-10-------|     |
|-77-7777-77-77---99-99-9910-10-10-10-10-10-------|     |
|-55-5555-55-55---77-77-77-7-7--7--7--7--7--------|     |
                                                       (x2)
|-------------------------------------------------|     |
|-------------------------------------------------|     |
|-------------------------------------------------|     |
|-55-55-5555-55-55--4444444444--------------------|     |
|-55-55-5555-55-55--4444444444--------------------|     |
|-33-33-3333-33-33--2222222222--------------------|-----|

Verse 1
|-----------------------------------------------------------|
|-----------------------------------------------------------|
|-4-44-4-4-/-7-77-7-7-/-9-99-9-9-/-111111-/-121212-/--------|
|-4-44-4-4-/-7-77-7-7-/-9-99-9-9-/-111111-/-121212-/-111111-|
|-2-22-2-2-/-5-55-5-5-/-7-77-7-7-/-9-9-9--/-101010-/-9-9-9--|
|-----------------------------------------------------------| (x2)

|-------------------------------|
|-------------------------------|
|-------------------------------|
|-4-4-4-4-5-5-5-5-7-7-7-7-------|
|-4-4-4-4-5-5-5-5-7-7-7-7-------|
|-2-2-2-2-3-3-3-3-5-5-5-5-------| (x2)
  . . .   . . .   . . .

|-----------------------------------------------------|
|-----------------------------------------------------|
|-4-44-4-4-/-7-77-7-7-/-9-99-9-9-/-111111-/-121212-/--|
|-x-xx-x-x-/-x-xx-x-x-/-x-xx-x-x-/-x-x-x--/-xxxxxx-/--|
|-2-22-2-2-/-5-55-5-5-/-7-77-7-7-/-9-9-9--/-101010-/--|
|-----------------------------------------------------| 

Then the bridge to Verse1 Once again. same times.

Riff.

|-----------------------------------------------------------------|
|-----------------------------------------------------------------|
|-----------------------------------------------------------------|
|-77-77-88-88-55-55-55-1010-99------------------------------2~----|
|-77-77-88-88-55-55-55-1010-99------------------------------2~----| 
|-55-55-55-55-33-33-33-7-7--77-(x2)-Repeat all once end on--0~----|

Off To Intro 1. 
|----------------------------------------|
|----------------------------------------|
|----------------------------------------|
|--------9-----------------9-------------|
|-----10----------------10---------------|
|--12-------(x5)-12-11---------(x5)------| x2

Verse 1 
|-----------------------------------------------------------|
|-----------------------------------------------------------|
|-4-44-4-4-/-7-77-7-7-/-9-99-9-9-/-111111-/-121212-/--------|
|-4-44-4-4-/-7-77-7-7-/-9-99-9-9-/-111111-/-121212-/-111111-|
|-2-22-2-2-/-5-55-5-5-/-7-77-7-7-/-9-9-9--/-101010-/-9-9-9--|
|-----------------------------------------------------------| 

Off To intro 2
|-----------------------------------------------------------------------|
|-----------------------------------------------------------------------|
|-----------------------------------------------------------------------|
|-----------------------------------------------------------------------|
|-----------2-----2-----5-----4-----4-------2-----2-----5-----4-----4---|
|--10\3-3-3---3-3---3-3---3-3---3-3---3-2-2---2-2---2-2---2-2---2-2---0-|

x2 second time no slide then inmediately continue with.

|-------------------------------------|
|-------------------------------------|
|-------------------------------------|
|-------------------------------------|
|-----4-----4-----7-----5-----5-------| All intro 2 twice with none slide  
|-5-5---5-5---5-5---5-5---5-5---0-----| after the first one.

Verse 1 again.
|-----------------------------------------------------|
|-----------------------------------------------------|
|-4-44-4-4-/-7-77-7-7-/-9-99-9-9-/-111111-/-121212-/--|
|-x-xx-x-x-/-x-xx-x-x-/-x-xx-x-x-/-x-x-x--/-xxxxxx-/--|
|-2-22-2-2-/-5-55-5-5-/-7-77-7-7-/-9-9-9--/-101010-/--|
|-----------------------------------------------------| 

Outro
|-----------------------------------------------|
|-----------------------------------------------|
|-----------------------------------------------|
|-------9------------9-------9------------------|
|----10-----------10-----------10----------9-7b-|
|-12------(x3)-11-------(x3)------11-12-11------|
Tap to rate this tab
# A B C D E F G H I J K L M N O P Q R S T U V W X Y Z