Song name
# A B C D E F G H I J K L M N O P Q R S T U V W X Y Z

Misc Unsigned Bands - Explosion Of The Insane - The Beginning tab

ok this is my first tab from my band, i pla lead guitar and i thought i should make a 
easy song to start off with so here it is.
these bars are just the start. the order and solo for the song will be coming soon. 
dudes or dudettes...


[A]
------------------------------------|
------------------------------------|
-11-9-11-9----------------9-11b-----|
-11--------11---11-9-9-11-----------|
-9----------------------------------|
------------------------------------|
               |     |                  } X2
------------------------------------|
------------------------------------|
-11-9-11-9----------------9b--------|
-11--------11---11-9-9-11-----------|
-9----------------------------------|
------------------------------------|


[B]
------------------------------------|
------------------------------------|
------------------------------------|
-7-5-7-5-------------5-7------------|
-7-------7---7-5-5-7----------------|
-5----------------------------------|
              |      |                  } X2
------------------------------------|
------------------------------------|
------------------------------------|
-7-5-7-5-------------5--------------|
-7-------7---7-5-5-7----------------|
-5----------------------------------|


[C]
-------------------------|---------------------------|
-------------------------|---------------------------|
-------------------------|---------------------------|  X2
-7-x--9-10-x---5-x-------|--7-x--9-10-x---5-x--------|
-7-x--9-10-x---5-x-7-9---|--7-x--9-10-x---5-x-7-9/10-|
-5-x--7-8--x---3-x-5-7---|--5-x--7-8--x---3-x-5-7/8--|


[D]
--------------------------|--------------------------|
--------------------------|--------------------------|
------------7-7--5-7-5----|------------7-7--5-7b-----|
-7-x-x-7-x--7-7-------7---|-7-x-x-7-x--7-7-----------|
-7-x-x-7-x--5-5-----------|-7-x-x-7-x--5-5-----------|
-5-x-x-5-x----------------|-5-x-x-5-x----------------|

ok thats it, hope you like, you cant get the rhythm of the song but just funk it up your 
and make it cool.
Tap to rate this tab
 
# A B C D E F G H I J K L M N O P Q R S T U V W X Y Z