Song name
# A B C D E F G H I J K L M N O P Q R S T U V W X Y Z

Misc Unsigned Bands - Blinded Youth - But Why tab

This is Blinded Youth's First tab!


Tabbed by:
Email:

Tuning:

e|--------------------------------------------------------------------------------|
B|--------------------------------------------------------------------------------|
G|--------------------------------------------------------------------------------|3x
D|-----------------6--------------------------------------------------------------|
A|----7-----7--7------------------------------------------------------------------|
E|-8-----8------------------------------------------------------------------------|


then go to

Tabbed by:
Email:

Tuning:

e|-------------------------------------------------------------------------------|
B|-------------------------------------------------------------------------------|
G|-------------------------------------------------------------------------------|
D|----------6--------------------------------------------------------------------|
A|-7-----7-----------------------------------------------------------------------|
E|----8--------------------------------------------------------------------------|
Tap to rate this tab
# A B C D E F G H I J K L M N O P Q R S T U V W X Y Z