Song name
# A B C D E F G H I J K L M N O P Q R S T U V W X Y Z

Misc Unsigned Bands - All The Below - Morse Code tab

Morse Code by All the Below

Copyright Black Cross Studios

Intro

e------------------------------------------|
B------------------------------------------|
G------------------------------------------|
D---9---7------9---7------7---9-7-77-77-7--|
A-7---7----7----------------------77-77-7--|
E-----------7---7----7-9---9-----55-55-5---|

Verse

e------------------------------------|
B------------------------------------|
G-99999------------------------------|
D-99999-999999-111111111111-7777777--|
A-77777-999999-111111111111-7777777--|
E------777777--9-9-9-9-9-9-5555555---|

Chorus

e--------------------|
B--------------------|
G-9--9/11--11/6--6---|
D-9--9/11--11/6--6-7-|
A-7--7/-9---9/4--4-7-|
E------------------5-|

Interlude

e----------------------------------|
B----------------------------------|
G----------------------------------|
D--9-9-9-9-9-9-9-9-7-7-7-7-7-7-7-7-|
A-7-7-7-7--------------------------|
E---------7-7-7-7-9-9-9-9-5-5-5-5--|
Tap to rate this tab
 
# A B C D E F G H I J K L M N O P Q R S T U V W X Y Z