Song name
# A B C D E F G H I J K L M N O P Q R S T U V W X Y Z

Misc Unsigned Bands - Point Of Rejection - Dont Try It tab

INTRO Guitar 1 ( Josh )

E----------------------------------------------------G
B-------5-6--6-6-5-----------------5-6--6-6-5--------U
G-5-5-7------------7-5-------5-5-7------------7-5--5-I
D----------------------------------------------------T
A----------------------------------------------------A
E----------------------------------------------------R               

----------------------------------------------------------------------

Guitar 2 ( Mike )

E---------------------------
B---------------------------
G-------------------10------
D-10-10-10-10-10-10-10------
A-10-10-10-10-10-10-8-------
E-8--8--8--8--8--8----------
___________________ mute what is underlined

Bass ( Alec )

G---------------B
D---------------A
A-------------8-S
E-8-8-8-8-8-8---S

---------------------------------------------------------------------------
Guitar 1 ( Josh )

E--------------------------------G
B--------------------------------U
G-------------------10-----------I
D-10-10-10-10-10-10-10-8---------T
A-10-10-10-10-10-10-8--8---------A
E-8--8--8--8--8--8-----6---------R

Bass ( Alec )

G------------------B
D-------------3----A
A-3-3-3-3-3-3---1--S
E------------------S

---------------------------------------------------------------------------

LYRICS

Don't try it
You can't hide it
All the people 
They just keep on fighting

But why , why
Theres nothing left
In our world to keep on fighting for

England ain't English any more
It is a pile of garbage at your door
The world is becoming a big fat mess
Every five minutes someones under arrest

So don't try it 
You can't hide it
All the people
Keep on dying

They get murdered
We're falling apart
Trying to find the answers
But we just can't

IS THIS THE END...













Tap to rate this tab
# A B C D E F G H I J K L M N O P Q R S T U V W X Y Z