Guitaretab - guitar tabs
Song name
# A B C D E F G H I J K L M N O P Q R S T U V W X Y Z

Misc Unsigned Bands - Point Of Rejection - Re-united Kingdom tab

1) Re-united kingdom

Guitar 1 ( Mike )

E---------------------------------G
B---------------------------------U
G-------8-8-8--10--------8-8-8----I
D-8-8-8-8-8-8--10--8-8-8-8-8-8--6-T
A-8-8-8-6-6-6--8---8-8-8-6-6-6--6-A
E-6-6-6------------6-6-6--------4-R x 2
[ Tab from: http://www.guitaretab.com/m/misc-unsigned-bands/79877.html ]
--------------------------------------------------------------------

E-3-3--3-3-3-3-3---3-3--3-3-3-3-3-G
B-3-3--3-3-3-3-3---3-3--3-0-0-0-0-U
G-0-0--0-0-0-0-0---0-0--0-0-0-0-0-I
D-0-0--0-0-0-0-0---0-0--0-0-0-0-0-T
A-2-2--2-2-2-2-2---3-3--3-3-3-3-3-A
E-3-3--3-3-3-3-3---3-3--3-3-3-3-3-R
      ___________       __________

Mute the underlined bits



Related for Point Of Rejection - Re-united Kingdom tab