Song name
# A B C D E F G H I J K L M N O P Q R S T U V W X Y Z

Misc Unsigned Bands - Action Item - Alcohol Is The Best Excuse For Saying What You Really Feel tab

BASICS OF THE SONG. THERE ARE MANY OTHER FILL-IN CHORDS IN THE RHYTHM PARTS. LISTEN FOR THEM.


_______________________
INTRO
_______________________

LEAD:
|-2h0-----5h0-2h0---2h0-----5h0-2h0------|
|------3h0--------------3h0--------------|
|----------------------------------------|
|----------------------------------------|
|----------------------------------------|
|----------------------------------------|

RHYTHM:
|----------------------------------------|
|----------------------------------------|
|----------------------------------------|
|-9-----5-----2--------------------------|
|-9-----5-----2--------------------------|
|-7-----3-----0--------------------------|

_______________________
VERSES
_______________________

LEAD(First Half of Verse):
|-----------------3h0-2h0-----5h0-3h0-2h0-2h0---|
|-------------------------3h0-------------------|
|-------7---------------------------------------|
|-9-----7---5-----------------------------------|
|-9-----5---5-----------------------------------|
|-7---------3-----------------------------------|

LEAD(Second Half of Verse):
|--------2h0-----5h0-2h0------------------------|
|------------3h0--------------------------------|
|-----------------------------------------------|
|-9-------------------------5------2------------|
|-9-------------------------5------2------------|
|-7-------------------------3------0------------|

RHYTHM:
|-----------------------------------------------|
|-----------------------------------------------|
|--------7--------------------------------------|
|-9------7-----5-----2--------------------------|
|-9------5-----5-----2--------------------------|
|-7------------3-----0--------------------------|

_______________________
CHORUS
_______________________

LEAD:
|-2h0-----5h0-2h0---2h0-----5h0-2h0------|
|------3h0--------------3h0--------------|
|----------------------------------------|
|----------------------------------------|
|----------------------------------------|
|----------------------------------------|

RHYTHM:
|-----------------------------------------------|
|-----------------------------------------------|
|--------7--------------------------------------|
|-9------7-----5-----2----5----2----------------|
|-9------5-----5-----2----5----2----------------|
|-7------------3-----0----3----0----------------|


_______________________
BREAKDOWN
_______________________

|-----------------------------------------------|
|-----------------------------------------------|
|--4-------7------------------------------------|
|--4-------7------5------2----------------------|
|--2-------5------5------2----------------------|
|-----------------3------0----------------------|





Tap to rate this tab
# A B C D E F G H I J K L M N O P Q R S T U V W X Y Z