Song name
# A B C D E F G H I J K L M N O P Q R S T U V W X Y Z

Misc Unsigned Bands - Dinley - Lucy tab

-------------------------------------------------------------------------------
			     LUCY - dinley
-------------------------------------------------------------------------------
Tabbed by: Nathan Denson
Email: dinley@mail.com

Tuning: Dropped-D

Intro (w/ distortion)
e|-----------------------------------------|
B|-----------------------------------------|
G|-----------------------------------------| (Repeat once)
D|----7---7---7---7---12---12----12----12--|
A|--5---5---5---5---9----9----10----10-----|
D|-----------------------------------------|

Intro cont'd/also the rhythm to the chorus
e|---------------------------------------------|
B|---------------------------------------------|
G|--7------------12-------------12-------------| (Play four times)
D|--7------------12-------------12-------------|
A|--5-(8x times)--9-(4x times)--10-(4x times)--|
D|--5-------------9-------------10-------------|

Verse (palm-mute)
e|------------------------------------------------------------------------|
B|------------------------------------------------------------------------|
G|--5-------------7-------------4-------------7-------------5-------------|
D|--5-(6x times)--7-(2x times)--4-(6x times)--7-(2x times)--5-(6x times)--|
A|--5-------------7-------------4-------------7-------------5-------------|
D|------------------------------------------------------------------------|

e|------------------------------|
B|------------------------------|
G|--7-------------4-------------| (Play the whole verse part two times0
D|--7-(2x times)--4-(5x times)--|
A|--7-------------4-------------|
D|------------------------------|

Chorus (This is the lead, 2nd guitar plays the rhythm part from the intro)
e|--------------------------------------------------------------------------------------|
B|--------------------------------------------------------------------------------------|
G|--7------------12------------12------------14------------12------------12-------------|
D|----(8x times)----(4x times)----(4x times)----(8x times)----(4x times)----(4x times)--|
A|--5-------------9------------10------------12-------------9------------10-------------|
D|--------------------------------------------------------------------------------------|

e|-----------------------------------------------------------------------------------------|
B|-----------------------------------------------------------------------------------------|
G|--7------------12------------12------------16------------12------------12-------------7--|
D|----(8x times)----(4x times)----(4x times)----(8x times)----(4x times)----(4x times)-----|
A|--5-------------9------------10------------14-------------9------------10-------------5--|
D|-----------------------------------------------------------------------------------------|

Verse

Chorus

Bridge (Bass plays chorus once alone then guitar comes in playing the two string intro part.

Chorus (2x times)

| /  slide up
| \  slide down
| h  hammer-on
| p  pull-off
| ~  vibrato
| +  harmonic
| x  Mute note
===============================================================================
Tap to rate this tab
# A B C D E F G H I J K L M N O P Q R S T U V W X Y Z