Song name
# A B C D E F G H I J K L M N O P Q R S T U V W X Y Z

Misc Unsigned Bands - Plastic Fang - Sweet Poverty tab

Help us improve GuitareTab! Take a short survey!
-------------------------------------------------------------------------------
			     Sweet Poverty - Plastic Fang
-------------------------------------------------------------------------------

This is a song by a unknown british band (but there still good!)
All guitars are on clean.

Tuning: EADGBE

Intro-

e|------------------------------------------------------------------------------|
B|------------------------------------------------------------------------------|
G|------------------------------------------------------------------------------|
D|---4-3-1----------------------------------------------------------------------|
A|-6--------4-------------------------------------------------------------------|
E|------------------------------------------------------------------------------|

e|---------------------------------------------------------------|
B|---------------------------------------------------------------|
G|---------------------------------------------------------------|
D|----4-3-1------------------------------------------------------|
A|-/6--------4-4-4-4---------------------------------------------|
E|---------------------------------------------------------------|

e|-----------------------------------------------------------------------------|
B|-----------------------------------------------------------------------------|
G|-----------------------------------6-6-6-6-6-6-6-6---------------------------|
D|---4-3-1------------4-3-1----------------------------6-6---------------------|
A|-6-------4-4-4-4--6-------4-4-4-4------------------4-----4-------------------|
E|-----------------------------------------------------------------------------|

Riff-

guitar two-

e|-----------------------------------------------------------------------------|
B|-----------------------------------------------------------------------------|
G|-8---8-8-8-------------------------------------------------------------------|
D|-8---8-8-8-------------------------------------------------------------------|
A|-6-6-6-6-6-------------------------------------------------------------------|
E|-----------------------------------------------------------------------------|

Guitar 1-

e|-----------------------------------------------------------------------------|
B|-----------------------------------------------------------------------------|
G|-----------------------------------------------------------------------------|
D|---4-3-1------------4-3-1------------4-3-1-------------------4---------------|
A|-6-------4-4-4-4--6-------4-4-4-4--6-------4-4-4-4--4-4-4-4----4-4-4---------|
E|-----------------------------------------------------------------------------|

Verse-

Guitar 1-
repeat throughout verse
e|-----------------------------------------------------------------------------|
B|-----------------------------------------------------------------------------|
G|-----------------------------------------------------------------------------|
D|-----------------------------------------------------------------------------|
A|-8b-6-4-4-4------------------------------------------------------------------|
E|-----------------------------------------------------------------------------|

Guitar 2-
repeat throughout verse
e|---------------------------------------------------------------------------|
B|---------------------------------------------------------------------------|
G|-8-------------------------------------------------------------------------|
D|-8-------------------------------------------------------------------------|
A|-6-------------------------------------------------------------------------|
E|---------------------------------------------------------------------------|

Chorus-
(both guitars and palm mute)
e|---------------------------------------------------------------------------|
B|---------------------------------------------------------------------------|
G|-6-------------------------------------------------------------------------|
D|-3(x16)-4------------------------------------------------------------------|
A|--------4-(x16)------------------------------------------------------------|
E|---------------------------------------------------------------------------|
x2

Verse-

Guitar 1-
repeat throughout verse
e|-----------------------------------------------------------------------------|
B|-----------------------------------------------------------------------------|
G|-----------------------------------------------------------------------------|
D|-----------------------------------------------------------------------------|
A|-8b-6-4-4-4------------------------------------------------------------------|
E|-----------------------------------------------------------------------------|

Guitar 2-
repeat throughout verse
e|---------------------------------------------------------------------------|
B|---------------------------------------------------------------------------|
G|-8-------------------------------------------------------------------------|
D|-8-------------------------------------------------------------------------|
A|-6-------------------------------------------------------------------------|
E|---------------------------------------------------------------------------|

Riff-

Carry on until end

guitar two-

e|-----------------------------------------------------------------------------|
B|-----------------------------------------------------------------------------|
G|-8---8-8-8-------------------------------------------------------------------|
D|-8---8-8-8-------------------------------------------------------------------|
A|-6-6-6-6-6-------------------------------------------------------------------|
E|-----------------------------------------------------------------------------|

Guitar 1-

e|-----------------------------------------------------------------------------|
B|-----------------------------------------------------------------------------|
G|-----------------------------------------------------------------------------|
D|---4-3-1------------4-3-1------------4-3-1-------------------4---------------|
A|-6-------4-4-4-4--6-------4-4-4-4--6-------4-4-4-4--4-4-4-4----4-4-4---------|
E|-----------------------------------------------------------------------------|
Related for Plastic Fang - Sweet Poverty tab