Song name
# A B C D E F G H I J K L M N O P Q R S T U V W X Y Z

Misc Unsigned Bands - Autumns Illusion - Animosity tab

Tabs By Derrick Mason
*Drummer for Autumn's Illusion*

yeah,... i know..


Standard Tuning
Intro 1st Guitar
e|----------------------------------------------------|
B|----------------------------------------------------|
G|------6-------6-------6-------6-------4-------4-----|
D|----6---6---6---6---6---6---6---6---4---4---4---4---|
A|--4-------4-------0-------0-------2-------2---------|
E|----------------------------------------------------|

e|-------------------------------|
B|-------------------------------|
G|------9-------8----9--8-----9--|
D|----9---9---9---9--------9-----|
A|--7-------6--------------------|
E|-------------------------------|

2nd Guitar Joined With 1st
e|-------------------------------------------|
B|-------------------------------------------|
G|---66666666-66666666-44444444-999-88888----|
D|---66666666-66666666-44444444-999-99999----|
A|---44444444-00000000-22222222-777-66666----|
E|-------------------------------------------|

e|-------------------------------------------|
B|-------------------------------------------|
G|---66666666-66666666-99999999-8888-9-8--8--|
D|---66666666-66666666-99999999-9999-----9---|
A|---44444444-00000000-77777777-6666---------|
E|-------------------------------------------|

1st Guitar
e|-------------------------|
B|-------------------------|
G|-8--9-----9--8--9-----9--|
D|-------8-----------8-----|
A|-------------------------|
E|-------------------------|

*Palm Muted*
2nd Guitar Joined With 1st
e|-------------------------------------------|
B|-------------------------------------------|
G|---66666666-66666666-44444444-999-88888----|
D|---66666666-66666666-44444444-999-99999----|
A|---44444444-00000000-22222222-777-66666----|
E|-------------------------------------------|

e|-------------------------------------------|
B|-------------------------------------------|
G|---66666666-66666666-99999999-8888-9-8--8--|
D|---66666666-66666666-99999999-9999-----9---|
A|---44444444-00000000-77777777-6666---------|
E|-------------------------------------------|
Repeat 2x

Pre-chorus

e|-------------------|
B|------------2~~----|
G|--6~6---44--2~~-44-|
D|--6~6---44--0~~-44-|
A|--4~4---22------22-|
E|-------------------|

Chorus
e|-------------------------------------------|
B|-------------------------------------------|
G|---99999999----------66666666--------------|
D|---99999999-99999999-66666666-77777777-----|
A|---77777777-99999999-44444444-77777777-----|
E|------------77777777----------55555555-----|

e|-------------------------------------------|
B|-------------------------------------------|
G|---99999999----------66666666--------------|
D|---99999999-99999999-66666666-77777777-----|
A|---77777777-99999999-44444444-77777777-----|
E|------------77777777----------55555555-----|

e|-------------------------------------------|
B|-------------------------------------------|
G|---99999999----------77777777--------------|
D|---99999999-99999999-77777777-77777777-----|
A|---77777777-99999999-55555555-77777777-----|
E|------------77777777----------55555555-----|

e|--------------------------------|
B|----------------------------2~~-|
G|---99999999----------6~6-44-2~~-|
D|---99999999-99999999-6~6-44-0~~-|
A|---77777777-99999999-4~4-22-----|
E|------------77777777------------|

e|-------------------|
B|------------2~~----|
G|--6~6---44--2~~-44-|
D|--6~6---44--0~~-44-|
A|--4~4---22------22-|
E|-------------------|

Bridge Unknown For Now.


Enjoy.



Tap to rate this tab
# A B C D E F G H I J K L M N O P Q R S T U V W X Y Z