Song name
# A B C D E F G H I J K L M N O P Q R S T U V W X Y Z

Misc Unsigned Bands - High Endurance - Why Havent You Called Me tab

 Bass does the intro, but you can also do it on guitar

intro
e|----------------------------------------------------------|
B|----------------------------------------------------------|
G|----------------------------------------------------------|
D|----------------------------------------------------------|  x2
A|--0-0-0-0-0-0---8-8-8-8-8-8---3-3-3-3-3-3---7-7-7/8-8-8---|
E|----------------------------------------------------------|

e|--0-0-0-0-0-0---0-0-0-0-0-0---0-0-0-0-0-0---0-0-0---0-0-0---|
B|--1-1-1-1-1-1---1-1-1-1-1-1---1-1-1-1-1-1---0-0-0---0-0-0---|
G|--2-2-2-2-2-2---2-2-2-2-2-2---0-0-0-0-0-0---2-2-2---1-1-1---|
D|--2-2-2-2-2-2---3-3-3-3-3-3---2-2-2-2-2-2---0-0-0---2-2-2---|  x2
A|--0-0-0-0-0-0---0-0-0-0-0-0---3-3-3-3-3-3---2-2-2---2-2-2---|
E|----------------------------------------------------0-0-0---|

verse:
guitar 1
e|--0-0-0-0-0-0---0-0-0-0-0-0---0-0-0-0-0-0---0-0-0---0-0-0---|
B|--1-1-1-1-1-1---1-1-1-1-1-1---1-1-1-1-1-1---0-0-0---0-0-0---|
G|--2-2-2-2-2-2---2-2-2-2-2-2---0-0-0-0-0-0---2-2-2---1-1-1---|
D|--2-2-2-2-2-2---3-3-3-3-3-3---2-2-2-2-2-2---0-0-0---2-2-2---|  x2
A|--0-0-0-0-0-0---0-0-0-0-0-0---3-3-3-3-3-3---2-2-2---2-2-2---|
E|----------------------------------------------------0-0-0---|

guitar 2
e|--0-0-0-0-0-0---0-0-0-0-0-0---0-0-0-0-0-0---0-0-0---0-0-0---|
B|--1-1-1-1-1-1---1-1-1-1-1-1---1-1-1-1-1-1---0-0-0---0-0-0---|
G|--2-2-2-2-2-2---2-2-2-2-2-2---0-0-0-0-0-0---2-2-2---1-1-1---|
D|--2-2-2-2-2-2---3-3-3-3-3-3---2-2-2-2-2-2---0-0-0---2-2-2---|  x2
A|--0-0-0-0-0-0---0-0-0-0-0-0---3-3-3-3-3-3---2-2-2---2-2-2---|
E|----------------------------------------------------0-0-0---|
    . . . . . .   . . . . . .   . . . . . .   . . .   .

chorus:
guitar 1,2
e|--0-0-0-0-0-0---3-3-3-3-3-3---0-0-0-0-0-0---0-0---0-0-0-----|
B|--1-1-1-1-1-1---0-0-0-0-0-0---1-1-1-1-1-1---1-1---0-0-0-----|
G|--2-2-2-2-2-2---0-0-0-0-0-0---0-0-0-0-0-0---2-2---1-1-1-----|
D|--2-2-2-2-2-2---0-0-0-0-0-0---2-2-2-2-2-2---3-3---2-2-2-----| x2
A|--0-0-0-0-0-0---2-2-2-2-2-2---3-3-3-3-3-3---0-0---2-2-2-----|
E|----------------3-3-3-3-3-3-----------------------0-0-0-----|

Verse: x2

Now right here is a guitar solo for guitar one but i haven't got it yet so just play the verse 7x

Bridge:
right here the bass plays the intro 2x
e|----------------------------------------------------------|
B|----------------------------------------------------------|
G|----------------------------------------------------------|
D|----------------------------------------------------------|
A|--0-0-0-0-0-0---8-8-8-8-8-8---3-3-3-3-3-3---8-8-8/7-7-7---|
E|----------------------------------------------------------|

Play chorus 2x

outro
gutiar 2
e|--0000000---|
B|--1111111---|
G|--2222222---|
D|--2222222---| x50      ALL OUT RAGE!!!!!!!!!!!!!!!!!!!
A|--0000000---|
E|--0000000---|

guitar 1 just do some sweet noodling up at the 12 fret

And that my friends is Why Haven't You Called Me. PEACE
Tap to rate this tab
 
# A B C D E F G H I J K L M N O P Q R S T U V W X Y Z