Song name
# A B C D E F G H I J K L M N O P Q R S T U V W X Y Z

Misc Unsigned Bands - Brent Antenite - Do You Ever Wonder tab

Help us improve GuitareTab! Take a short survey!
      [--------------------------------------------------------------------]
      [--5---5---5---5---5---5--------5---5---5---5---5---5----------------]
INTRO [5---5---4---4---5---5---4~---5---5---4---4---5---5---4~-------------]
      [--------------------------------------------------------------------]
      [--------------------------------------------------------------------]
      [--------------------------------------------------------------------]


      [------------------------------------------------------------------]
      [------------------------------------------------------------------]
CHORUS[------------------------------------------------------------------]4x
      [-3-3-3-3-3-3-3-3-2-2-2-2-2-2-2-2-5-5-5-5-5-5-5-5-2-2-2-2-2-2-2-2--]
      [-3-3-3-3-3-3-3-3-2-2-2-2-2-2-2-2-5-5-5-5-5-5-5-5-2-2-2-2-2-2-2-2--]
      [-1-1-1-1-1-1-1-1-0-0-0-0-0-0-0-0-3-3-3-3-3-3-3-3-0-0-0-0-0-0-0-0--]


     [--------------------------]
     [--------------------------]
VERSE[-----------------5-3-5----]4x
     [-5-5-5-5-5-5-5-5-5-3-5----]
     [-5-5-5-5-5-5-5-5-3-1-3----]
     [-3-3-3-3-3-3-3-3----------]

ORDER:

Intro
Verse
Chorus
Intro
Verse
Chorus
Verse
Intro
Chorus 1x and let last chord ring


you guys haveprobably never heardof this song because it was just made yesterday. I am
artist but my name is not Brent Antenite. I might make a CD and send it out but until
you'll have no idea what the original song sounds like. bootsboy22@hotmail.com if u want 
comment on anything.
Related for Brent Antenite - Do You Ever Wonder tab