Song name
# A B C D E F G H I J K L M N O P Q R S T U V W X Y Z

Misc Unsigned Bands - No Remote - Oxygen tab

Help us improve GuitareTab! Take a short survey!
No Remote - Oxygen

I tabbed the bass too, I don't play bass so it's probably wrong lol, great song and good 
And as said at the bottom, it's not 100% in all places but it sounds about right.

Sam Clarke

Intro: X2

E]-------------44444444-----55555555----7777-----------------------------------|
A]-------------44444444-----55555555----7777-----------------------------------|
D]-------------55555555-----66666666----8888-----------------------------------|
G]-22222222----66666666-----77777777----9999-----------------------------------|
B]-22222222----66666666-----77777777----9999-----------------------------------|
E]-00000000----44444444-----55555555----7777-------7h9p7s5h7p5s4s2-------------|
  .........PM...............PM.......PM.....


E]-----------------------------------------------------------------------------|
A]-----------------------------------------------------------------------------|
D]-----------------------------------------------------------------------------|
G]-00000000----44444444-----55555555----7777-----------------------------------|

Verse: X2

E]-------------44444444-----55555555----7777----7--77--------------------------|
A]-------------44444444-----55555555----7777----7--77--------------------------|
D]-------------55555555-----66666666----8888----8--88--------------------------|
G]-22222222----66666666-----77777777----9999----9--99--------------------------|
B]-22222222----66666666-----77777777----9999----9--99--------------------------|
E]-00000000----44444444-----55555555----7777----7--77--------------------------|
  .........PM...............PM.......PM.....

E]-----------------------------------------------------------------------------|
A]-----------------------------------------------------------------------------|
D]-----------------------------------------------------------------------------|
G]-00000000----44444444-----55555555----7777-------7--5--4--2------------------|

Chorus: X2
Figure out strumming

E]-9-----5-----12----\s7-------------------------------------------------------|
A]-9-----5-----12----\s7-------------------------------------------------------|
D]-10----6-----13----\s8-------------------------------------------------------|
G]-11----7-----14----\s9-------------------------------------------------------|
B]-11----7-----14----\s9-------------------------------------------------------|
E]-9-----5-----12----\s7-------------------------------------------------------|


E]-----------------------------------------------------------------------------|
A]-----------------------------------------------------------------------------|
D]-----------------------------------------------------------------------------|
G]99999999----55555555----1212121212121212----9----77777-----------------------|


Verse 2:

GTR1:

E]-------------44444444-----55555555----7777----{7--77--------------------}----|
A]-------------44444444-----55555555----7777----{7--77---Play Leading Open}----|
D]-------------55555555-----66666666----8888----{8--88---Into Chorus------}----|
G]-22222222----66666666-----77777777----9999----{9--99--------------------}----|
B]-22222222----66666666-----77777777----9999----{9--99--------------------}----|
E]-00000000----44444444-----55555555----7777----{7--77--------------------}----|
  .........PM...............PM.......PM.....

Gtr2:

E]-----------------------------------------------------------------------------|
A]-----------------------------------------------------------------------------|
D]-----------------------------------------------------------------------------|
G]-----------------------------------------------------------------------------|
B]-7~-----9~--6~----12~----12---/s7----7~--------------------------------------|
E]-----------------------------------------------------------------------------|


E]-----------------------------------------------------------------------------|
A]-----------------------------------------------------------------------------|
D]-----------------------------------------------------------------------------|
G]-00000000----44444444-----55555555----7777-------7--5--4--2------------------|

Chorus: Played as above

Bridge 1:
GTR1
E]-----------------------------------------------------------------------------|
A]-----------------------------------------------------------------------------|
D]-----------------------------------------------------------------------------|
G]-2222222222222222------------------------------------------------------------|
B]-2222222222222222------------------------------------------------------------|
E]-0000000000000000------------------------------------------------------------|
  .....PM..........
GTR1 (Clean)
E]-----------7-5-4-0------4-5-7----------------------4---4--5-4-4h5p4s2----4---2--0------2--|
A]-9---9--10------------4---------12-10-9h10p9\s7--2---2----------------------------2----2--|
D]---9-------------------------------------------------------------------2----2--2-2-----2--|
G]------------------------------------------------------------------------------------------|
B]------------------------------------------------------------------------------------------|
E]------------------------------------------------------------------------------------------|

Bridge 2: Figure out timings between GTR1 & 2

GTR1 (distorted) X4
E]---------------------------------------|
A]---------------------------------------|
D]---------------------------------------|
G]-2--4--6--7--9p7-6h7-4h6--2--2h4p2s1s2-|
B]---------------------------------------|
E]---------------------------------------|

GTR2 Comes in

GTR2
E]-------------44444444-----55555555----7777----7--77--------------------------|
A]-------------44444444-----55555555----7777----7--77--------------------------|
D]-------------55555555-----66666666----8888----8--88--------------------------|
G]-22222222----66666666-----77777777----9999----9--99--------------------------|
B]-22222222----66666666-----77777777----9999----9--99--------------------------|
E]-00000000----44444444-----55555555----7777----7--77--------------------------|
  .........PM...............PM.......PM................PM.................PM...

GTR1 (v/heavily distorted) X4
E]---------------------------------------|
A]---------------------------------------|
D]---------------------------------------|
G]-2--4--6--7--9p7-6h7-4h6--2--2h4p2s1s2-|
B]---------------------------------------|
E]---------------------------------------|

GTR2
E]-------------44444444-----55555555----7777----7--77--------------------------|
A]-------------44444444-----55555555----7777----7--77--------------------------|
D]-------------55555555-----66666666----8888----8--88--------------------------|
G]-22222222----66666666-----77777777----9999----9--99--------------------------|
B]-22222222----66666666-----77777777----9999----9--99--------------------------|
E]-00000000----44444444-----55555555----7777----7--77--------------------------|


E]--------------------------------------------------------------------------------|
A]--------------------------------------------------------------------------------|
D]--------------------------------------------------------------------------------|
G]-00000000----44444444-----555555555---7777--55--44------------------------------|


Chorus: GTR1 Is not exact, for GTR2 figure out strumming

GTR1:
E]---------------------------------------|
A]---------------------------------------|
D]---------------------------------------|
G]-2--4--6--7--9p7-6h7-4h6--2--2h4p2s1s2-|
B]---------------------------------------|
E]---------------------------------------|

E]----2--4--5--7777---------------------|
A]----2--4--5--7777---------------------|
D]----3--5--6--8888---------------------|
G]-2--4--6--7--9999---------------------|
B]-2--4--6--7--9999---------------------|
E]-0--2--4--5--7777---------------------|


E]-----------------------------------------------------------------------------|
A]-----------------------------------------------------------------------------|
D]-----------------------------------------------------------------------------|
G]-00000000----44444444-----55555555----7777-------7--5--4--2------------------|

Outro:

GTR1 (Clean)
E]-----------7-5-4-0------4-5-7----------------------4---4--5-4-4h5p4s2----4---2--0------2--|
A]-9---9--10------------4---------12-10-9h10p9\s7--2---2----------------------------2----2--|
D]---9-------------------------------------------------------------------2----2--2-2-----2--|
G]------------------------------------------------------------------------------------------|
B]------------------------------------------------------------------------------------------|
E]------------------------------------------------------------------------------------------|

End on:
E]-0--
A]-0--
D]-0--
G]-2--
B]-2--
E]-0--


That's it, it's not perfect in all places but it's pretty damned close.

By Sam Clarke
Related for No Remote - Oxygen tab