Song name
# A B C D E F G H I J K L M N O P Q R S T U V W X Y Z

Misc Unsigned Bands - Love And Cellophane - The Goodbye Song tab

                             THE GOODBYE SONG
                        As record by Love & Cellophane
        (From the 2006 album CUTE GIRLS IN A STRIP MALL PARKING LOT)
                    Copyright (c) Love & Cellophane 2006


Transcribed by Kotie Arzamastsev  afateworsethandying@yahoo.com

Lyrics and Music written by Love & Cellophane

Tuning:
Gtr I (DADGBe) - Primary Lead
Gtr II (DADGBe) - Secondary Lead
Gtr III (DADGBe) - Rhythm

Q = Moderate Tempo
       4/4

  Gtr III
[Intro/Verse]
e|-----------------------------------------------||
B|---------1----------1----------1----------1---0||
G|-------0----------0----------0----------0------||
D|-----2----------2----------2----------2--------|| x7
A|--3----------0----------3---------------------0||
D|-----------------------------------3-----------||

e|-------------------------------------------------|
B|---------1----------1----------1-----------------|
G|-------0----------0----------0-----5---5-5---5---|
D|-----2----------2----------2-------3---3-3---3---|
A|--3----------0----------3----------3---3-3---3---|
D|-----------------------------------3---3-3---3---|

e|-----------------------------------------------------------------------|
B|-----------------------------------------------------------------------|
G|--7---7-7---7-7---7-7---7--4---4-4---4-4---4-4---4--x--x-x--x-x--x-x---|
D|--5---5-5---5-5---5-5---5--5---5-5---5-5---5-5---5--x--x-x--x-x--x-x---|
A|----------------------------------------------------x--x-x--x-x--x-x---|
D|--5---5-5---5-5---5-5---5--5---5-5---5-5---5-5---5---------------------|


  Gtr III
[Chorus]
e|---0-0-3-0--0-0-0---0-0-3-0--0-0-0---0-0-3-0--0-0-0--------------------|
B|---1-1-1-1--1-1-1---1-1-1-1--1-1-1---1-1-1-1--1-1-1--------------------|
G|---0-0-0-0--0-0-0---0-0-0-0--0-0-0---0-0-0-0--0-0-0------5-5-5-5-5-5---|
D|---2-2-2-2--2-2-2---0-0-0-0--0-0-0---2-2-2-2--2-2-2---3--3-3-3-3-3-3---|
A|---3-3-3-3--3-3-3---2-2-2-2--2-2-2---0-0-0-0--0-0-0---3--3-3-3-3-3-3---|
D|------------------------------------------------------3--3-3-3-3-3-3---|

e|---0-0-3-0--0-0-0---0-0-3-0--0-0-0---|
B|---1-1-1-1--1-1-1---1-1-1-1--1-1-1---|
G|---0-0-0-0--0-0-0---0-0-0-0--0-0-0---|
D|---2-2-2-2--2-2-2---0-0-0-0--0-0-0---|
A|---3-3-3-3--3-3-3---2-2-2-2--2-2-2---|
D|-------------------------------------|

e|--------------------------------------------------------------|
B|--------------------------------------------------------------|
G|---5--5-5--5-5--5-5--5-7--7-7--7-7--7-7--7-------x-x-x--x-x---|
D|---3--3-3--3-3--3-3--3-5--5-5--5-5--5-5--5---5---x-x-x--x-x---|
A|---3--3-3--3-3--3-3--3-5--5-5--5-5--5-5--5---5---x-x-x--x-x---|
D|---3--3-3--3-3--3-3--3-5--5-5--5-5--5-5--5---5----------------|


  Gtr I, II, III
[Guitar Solo]
e|---12---15--12--------------------------12---15--12-------------|
B|----------------15-13---15b16r15--13-----------------15-13------|
G|-----------------------------------------------------------14---|
D|----------------------------------------------------------------|
A|----------------------------------------------------------------|
D|----------------------------------------------------------------|
 |
e|----------------------------------------------------------------|
B|---13---17--13--------------------------13---17--13-------------|
G|----------------14-12---14b16r14--12-----------------14-12------|
D|-----------------------------------------------------------15---|
A|----------------------------------------------------------------|
D|----------------------------------------------------------------|
 |
e|---0-0-3-0--0-0-0---0-0-3-0--0-0-0---0-0-3-0--0-0-0--------------------|
B|---1-1-1-1--1-1-1---1-1-1-1--1-1-1---1-1-1-1--1-1-1--------------------|
G|---0-0-0-0--0-0-0---0-0-0-0--0-0-0---0-0-0-0--0-0-0------5-5-5-5-5-5---|
D|---2-2-2-2--2-2-2---0-0-0-0--0-0-0---2-2-2-2--2-2-2---3--3-3-3-3-3-3---|
A|---3-3-3-3--3-3-3---2-2-2-2--2-2-2---0-0-0-0--0-0-0---3--3-3-3-3-3-3---|
D|------------------------------------------------------3--3-3-3-3-3-3---|


e|---12---15--12---------------------------------------------|
B|----------------15-13---15b16r15--13----15---13--13---13---|
G|-----------------------------------------------------------|
D|-----------------------------------------------------------|
A|-----------------------------------------------------------|
D|-----------------------------------------------------------|
 |
e|-----------------------------------------------------------|
B|---13---17--13---------------------------------------------|
G|----------------14-12---14b16r14--12----14---14--12--------|
D|-----------------------------------------------------------|
A|-----------------------------------------------------------|
D|-----------------------------------------------------------|
 |
e|---0-0-3-0--0-0-0---0-0-3-0--0-0-0-------------------------------------|
B|---1-1-1-1--1-1-1---1-1-1-1--1-1-1-------------------------------------|
G|---0-0-0-0--0-0-0---0-0-0-0--0-0-0---5-5-5-5--5-5-5---7--7-7-7-7-7-7---|
D|---2-2-2-2--2-2-2---0-0-0-0--0-0-0---3-3-3-3--3-3-3---5--5-5-5-5-5-5---|
A|---3-3-3-3--3-3-3---2-2-2-2--2-2-2---3-3-3-3--3-3-3---5--5-5-5-5-5-5---|
D|-------------------------------------3-3-3-3--3-3-3---5--5-5-5-5-5-5---|


       "Don't   stop   cause..."
e|--------------------------------|
B|--------------------------------|
G|--7---x-------x-------x---------|
D|--5---x-------x-------x---------|
A|--5---x-------x-------x---------|
D|--5-----------------------------|


  "We're almost there,  me and you,   me and you..."
e|---0-0-3-0--0-0-0---0-0-3-0--0-0-0---0-0-3-0--0-0-0---0-0-0-0--0-0-0---|
B|---1-1-1-1--1-1-1---1-1-1-1--1-1-1---1-1-1-1--1-1-1---1-1-1-1--1-1-1---|
G|---0-0-0-0--0-0-0---0-0-0-0--0-0-0---0-0-0-0--0-0-0---0-0-0-0--0-0-0---|
D|---2-2-2-2--2-2-2---0-0-0-0--0-0-0---2-2-2-2--2-2-2---0-0-0-0--0-0-0---|
A|---3-3-3-3--3-3-3---2-2-2-2--2-2-2---0-0-0-0--0-0-0---2-2-2-2--2-2-2---|
D|-----------------------------------------------------------------------|

e|---0-0-3-0--0-0-0---0-0-3-0--0-0-0---|
B|---1-1-1-1--1-1-1---1-1-1-1--1-1-1---|
G|---0-0-0-0--0-0-0---0-0-0-0--0-0-0---|
D|---2-2-2-2--2-2-2---0-0-0-0--0-0-0---|
A|---3-3-3-3--3-3-3---2-2-2-2--2-2-2---|
D|-------------------------------------|

e|---------------------------------------------|
B|---------------------------------------------|
G|---5--5-5--5-5--5-5--5-7--7-7--7-7--7-7--7---|
D|---3--3-3--3-3--3-3--3-5--5-5--5-5--5-5--5---|
A|---3--3-3--3-3--3-3--3-5--5-5--5-5--5-5--5---|
D|---3--3-3--3-3--3-3--3-5--5-5--5-5--5-5--5---|

  "We're almost there,  me and you,   me and you..."
e|---0-0-3-0--0-0-0---0-0-3-0--0-0-0---0-0-3-0--0-0-0----------------------|
B|---1-1-1-1--1-1-1---1-1-1-1--1-1-1---1-1-1-1--1-1-1----------------------|
G|---0-0-0-0--0-0-0---0-0-0-0--0-0-0---0-0-0-0--0-0-0------x-x--x-x--x-x-x-|
D|---2-2-2-2--2-2-2---0-0-0-0--0-0-0---2-2-2-2--2-2-2---3--x-x--x-x--x-x-x-|
A|---3-3-3-3--3-3-3---2-2-2-2--2-2-2---0-0-0-0--0-0-0---3--x-x--x-x--x-x-x-|
D|------------------------------------------------------3------------------|

e|---0-0-3-0--0-0-0---0-0-3-0--0-0-0---|
B|---1-1-1-1--1-1-1---1-1-1-1--1-1-1---|
G|---0-0-0-0--0-0-0---0-0-0-0--0-0-0---|
D|---2-2-2-2--2-2-2---0-0-0-0--0-0-0---|
A|---3-3-3-3--3-3-3---2-2-2-2--2-2-2---|
D|-------------------------------------|

    "We'll  make  it      together"
e|---------------------------------|
B|---------------------------------|
G|---5--5-5--5-5--5-5--5---7-------|
D|---3--3-3--3-3--3-3--3---5-------|
A|---3--3-3--3-3--3-3--3---5-------|
D|---3--3-3--3-3--3-3--3---5-------|


Gtr I
[Interlude]

e|-----------------------------------------------------------------------|
B|---5---5-5-5---5/6---6---6-6-6---6\5---5---5-5-5---5\3---3--3-3-3--3---|
G|---5---5-5-5---5-----5---5-5-5---5-----5---5-5-5---5-----5--5-5-5--5---|
D|---2---2-2-2---2-----3---3-3-3---3-----3---3-3-3---3-----3--3-3-3--3---|
A|---0---0-0-0---0-----5---5-5-5---5-------------------------------------|
D|---------------------------------------5---5-5-5---5-----3--3-3-3--3---|

e|--------------------------------------------------------------|
B|---5---5-5-5---5/6---6---6-6-6---6\5---5---5-5-5---5\3---3---0|
G|---5---5-5-5---5-----5---5-5-5---5-----5---5-5-5---5-----5----|
D|---2---2-2-2---2-----3---3-3-3---3-----3---3-3-3---3-----3----| x3
A|---0---0-0-0---0-----5---5-5-5---5---------------------------0|
D|---------------------------------------5---5-5-5---5-----3----|


Gtr 1, 3
[Goodbye]
e|--15--------12----------10---8-----------------|
B|--17--------13----------12--10-----------------|
G|-----------------------------------------------|
D|-----------------------------------------------|
A|-----------------------------------------------|
D|-----------------------------------------------|
 |                                               |
e|-----------------------------------------------|
B|--13--13-13-13--13-13---13--13-13-13--13-13----|
G|--12--12-12-12--12-12---12--12-12-12--12-12----|
D|--10--10-10-10--10-10---10--10-10-10--10-10----|
A|--12--12-12-12--12-12---10--10-10-10--10-10----|
D|-----------------------------------------------|


e|--15---------8----------10--------12-----------|
B|--17--------10----------12--------13----------0|
G|-----------------------------------------------|
D|-----------------------------------------------|
A|----------------------------------------------0|
D|-----------------------------------------------|
 |                                               |  x4
e|-----------------------------------------------|
B|--13--13-13-13--13-13---12--12-12-12--12-12---0|
G|--12--12-12-12--12-12---12--12-12-12--12-12----|
D|--10--10-10-10--10-10---10--10-10-10--10-10----|
A|---8---8--8--8---8--8---10--10-10-10--10-10----|
D|-----------------------------------------------|


Gtr. I, II, III
e|---8--------15----------12----------10---7-----|
B|--10--------17----------13----------12---8-----|
G|-----------------------------------------------|
D|-----------------------------------------------|
A|-----------------------------------------------|
D|-----------------------------------------------|
 |                                               |
e|--8---8---8---8--10--8---8---8---8--7----------|
B|----8---8---8----------8---8---8---------------|
G|-----------------------------------------------|
D|-----------------------------------------------|
A|-----------------------------------------------|
D|-----------------------------------------------|
 |                                               |
e|-----------------------------------------------|
B|--13--13-13-13--13-13---13--13-13-13--13-13----|
G|--12--12-12-12--12-12---12--12-12-12--12-12----|
D|--10--10-10-10--10-10---10--10-10-10--10-10----|
A|--12--12-12-12--12-12---10--10-10-10--10-10----|
D|-----------------------------------------------|


e|---8------------10-----8-----------------------|
B|--10------------12----10-----------------------|
G|-----------------------------------------------|
D|-----------------------------------------------|
A|-----------------------------------------------|
D|-----------------------------------------------|
 |                                               |
e|--8---8---8---8--10--8---8---8---8--7----------|
B|----8---8---8----------8---8---8---------------|
G|-----------------------------------------------|
D|-----------------------------------------------|
A|-----------------------------------------------|
D|-----------------------------------------------|
 |                                               |
e|-----------------------------------------------|
B|--13--13-13-13--13-13---12--12-12-12--12-12----|
G|--12--12-12-12--12-12---12--12-12-12--12-12----|
D|--10--10-10-10--10-10---10--10-10-10--10-10----|
A|---8---8--8--8---8--8---10--10-10-10--10-10----|
D|-----------------------------------------------|


e|--15--------12------10---13-------8---10---7---|
B|--17--------13------12---12------10---12---8---|
G|-----------------------------------------------|
D|-----------------------------------------------|
A|-----------------------------------------------|
D|-----------------------------------------------|
 |                                               |
e|--8---8---8---8--10--8---8---8---8--7----------|
B|----8---8---8----------8---8---8---------------|
G|-----------------------------------------------|
D|-----------------------------------------------|
A|-----------------------------------------------|
D|-----------------------------------------------|
 |                                               |
e|-----------------------------------------------|
B|--13--13-13-13--13-13---13--13-13-13--13-13----|
G|--12--12-12-12--12-12---12--12-12-12--12-12----|
D|--10--10-10-10--10-10---10--10-10-10--10-10----|
A|--12--12-12-12--12-12---10--10-10-10--10-10----|
D|-----------------------------------------------|


e|---8-------------------------------------------|
B|--10-------------------------------------------|
G|-----------------------------------------------|
D|-----------------------------------------------|
A|-----------------------------------------------|
D|-----------------------------------------------|
 |                                               |
e|--8---8---8---8--10--8---8---8---8--7----------|
B|----8---8---8----------8---8---8---------------|
G|-----------------------------------------------|
D|-----------------------------------------------|
A|-----------------------------------------------|
D|-----------------------------------------------|
 |                                               |
e|-----------------------------------------------|
B|--13--13-13-13--13-13---12--12-12-12--12-12----|
G|--12--12-12-12--12-12---12--12-12-12--12-12----|
D|--10--10-10-10--10-10---10--10-10-10--10-10----|
A|---8---8--8--8---8--8---10--10-10-10--10-10----|
D|-----------------------------------------------|


Gtr II, III
[End]
e|-------8-----8--------------|
B|-----8-------8---------8----|
G|----------------------------|
D|----------------------------|
A|----------------------------|
D|----------------------------|
 |                            |
e|----------------------------|
B|----------------------------|
G|---13--------13-------------|
D|---12--------12--------12---|
A|---10--------10--------10---|
D|---12--------10---------8---|


=]

Lyrics:
[Verse]
Me and you were walking down the road
Between us was a lovers' quarrel

I make a joke
You hide a smile
I pull you close
Just for a while

[Chorus]
I'm just a boy you're just a girl
We're both alone in this crazy world
Chasing you down the street
We fall in love -- love!

Don't stop cause

We're almost there
Me and you, me and you
We're almost there
Just us two, just us two
We're almost there
Me and you, me and you
We'll make it together! x2

[Interlude]
The date's been set
We're all dressed up
The headlights shining down on us

Just these three words
Escape my breath

I love you..


[Goodbye]
And if I ever fall from grace
I want to make up for all my mistakes
For every emotion you shed a tear
For everytime you needed me and I wasn't near


I love you...





| /  slide up
| \  slide down
| h  hammer-on
| p  pull-off
| ~  vibrato
| +  harmonic
| x  Mute note
Tap to rate this tab
 
# A B C D E F G H I J K L M N O P Q R S T U V W X Y Z