Song name
# A B C D E F G H I J K L M N O P Q R S T U V W X Y Z

Misc Unsigned Bands - Fyos - Retards tab

TUNING LOW TO HIGH (E-A-D-G-B-E)
THIS TAB IS A SONG THAT ME AND MY BAND WROTE.
GTR.1 CLEAN 5X'S (INTRO)
E ------------------------------------------------------------------------|
B ------------------------------------------------------------------------|
G -------4----------------------------------------------------------------|
D ----------5------5------5--------7--------------------------------------|
A ----5--------5-------3-----3/5------------------------------------------|
E ------------------------------------------------------------------------|

    (OUTRO)
E ---------------------------------------------------------------------------|
B --0--0---------------0-----------------------------------------------------|
G --4--4---------------0-----------------------------------------------------|
D --5--5----5----5-----0-----------------------------------------------------|
A --5--5----3----3-----0-----------------------------------------------------|
E ---------------------------------------------------------------------------|
Tap to rate this tab
# A B C D E F G H I J K L M N O P Q R S T U V W X Y Z