Song name
# A B C D E F G H I J K L M N O P Q R S T U V W X Y Z

Misc Unsigned Bands - We Fall Short - More Like You tab

-------------------------------------------------------------------------------
			     More Like You-We Fall Short
-------------------------------------------------------------------------------
Tabbed by:Stubby2010
Email:Stubby2010@aol.co,

Tuning:Drop C

e|---------------------------------------------------------------------------|
B|---------------------------------------------------------------------------|
G|---------------------------------------------------------------------------|
D|-----9------10--X3--------9--------10--------------------------------------|
A|-7------7-------------7-------7----------7-7-------------------------------|
E|---------------------------------------------------------------------------|

e|---------------------------------------------------------------------------|
B|---------------------------------------------------------------------------|
G|---9--------11-------12-------14-------12--------11-------9~---------------|
D----------------------------------------------------------------------------|
A|---7---------9-------10-------12-------10---------9-------7----------------|
E|---------------------------------------------------------------------------|


===============================================================================
Tap to rate this tab
# A B C D E F G H I J K L M N O P Q R S T U V W X Y Z