Song name
# A B C D E F G H I J K L M N O P Q R S T U V W X Y Z

Misc Unsigned Bands - Death Defiers - Emerald Pan tab

EMERALD PAN


1------0-----0------0-----0------0-----0------0-----0------|
2-----0-----8------0-----8------0-----8------0-----8-------|
3----8-----9------8-----9------8-----9------8-----9--------|
4---9-----9------9-----9------9-----9------9-----9---------|
5--9-----0------9-----0------9-----0------9-----0----------|
6-0------------0------------0------------0-----------------|

1------0----------0----------2---------2------|
2-----3-3--------3-3--------0-0-0-----0-0—0---|
3----2---2------2---2------0---0-----0---0----|
4---0----------4----------2---------2---------|
5---------------------------------------------|
6---------------------------------------------|

1-14-16-14-17-14-16-14-16-14--14-------------------------------------|
2---------------------------16—16-14^-14-16-14-------14—14-16-14-14--|
3---------------------------------------------17-14-17-17-------17---|
4--------------------------------------------------------------------|
5--------------------------------------------------------------------|
6--------------------------------------------------------------------|

“D D- D7 DO A O A A O A” D D- D7 DO A O E A O E REPEAT”” D D- D7 DO A O D A CA A


1-14-14-------------------------16-16---------------------14-14-14-14-|
2------14-16-14--------14-16-14-------14-16---------14-16-------------|
3--------------15S14-12---------------------15S14-12------------------|
4---------------------------------------------------------------------|
5---------------------------------------------------------------------|
6---------------------------------------------------------------------|



1-16-14------------------------------------22s21-19-|
2-------15s14-12-12---12-14-14-14-------------------|
3------------------16-------------15-14-12----------|
4---------------------------------------------------|
5---------------------------------------------------|
6---------------------------------------------------|

1----------------------------3---------3-----------2h3-----2h3p2--|
2----0h1p0h1----2h3p2h3-------------------------1-1---1---1-----3-|
3---2----------4------------4-4-------4-4------2-2-------2--------|
4--2----------4------------5---5-----5---5----0---------0---------|
5-0----------2------------5-----5---5-----5-----------------------|
6------------------------3-------3-3-------3----------------------|


1----------------------|
2----------------------|
3----0h1p0-------1-----|
4---2-----2-----2-2----|
5—2--------2---2---2---|
6-0-----------0-----0--|

1----------------------------------------------------|
2----------------------------------------------------|
3----------------------------------------------------|
4----------------------------------------------------|
5-------16-16-------15-15-------14-14-------13-13----|
6-13-13-13-13-13-13-13-13-13-13-13-13-13-13-13-13-16-|


1----------------------------------------------------|
2----------------------------------------------------|
3----------------------------------------------------|
4----------------------------------------------------|
5-------16-16-------15-15-------14-14-------13-13----|
6-13-13-13-13-13-13-13-13-13-13-13-13-13-13-13-13-16-|


1----22---22---21---20-|
2-18----18---21---20---|
3----------------------|
4----------------------|
5----------------------|
6----------------------|


1-------------------------------------------------|
2-------------------------------------------------|
3-------------------------------------------------|
4-------------------------------------------------|
5-------16-16-------15-15-------14-14----13-13----|
6-13-13-13-13-13-13-13-13-13-13-13-13-13-13-13-16-|

1------------------------------------------------------|
2------------------------------------------------------|
3------------------------------------------------------|
4------------------------------------------------------|
5-------16-16-------15-15-------14-14-------13-13------|
6-13-13-13-13-13-13-13-13-13-13-13-13-13-13-13-13-16---|  x2

A C#M G E A C#M  G BA

          Bang On Amp
Tap to rate this tab
# A B C D E F G H I J K L M N O P Q R S T U V W X Y Z